Табулатура ДДТ | Ветер гитара табулатуры уроки тексты песен ДДТ текст lyrics песня аккорды песни ноты нота электрогитара струна  
   А Б В Г Д Е Ж З И К Л М Н О П Р С Т У Ф Х Ч Ш Ы Э Ю Я       Разные песни
1-9 A B C D E F G H I J K L M N O P Q R S T U V W Y Z      Все исполнители in english

    



группа ДДТ, Табулатура песни Ветер

Продолжаем грести бабос на ботах в Telegram.
Только в этот раз есть вариант автоматизировать это дело, привлекая рефералов. Вы можете заработать если »

Группа: ДДТ - другие аккорды (189),   о группе (9 статей),   диски (7),   фотографии (16)
Табулатура песни: Ветер
Просмотров: 7041
Подобрал: Nazgul [BioFuck] (Raistlin@hotbox.ru)




    
Вступление:
   Em                       D                Em    
1|-----------------------------------------------------------|
2|-----------------------------------------------------------|
3|------------------------------2-0--------------------------|     2x
4|--------2-0-2-0-2---2-2-------------4-0--------------------|
5|------------------0----------------------------------------|
6|-----------------------------------------------------------|

Куплет и проигрыш.

1|--------------------------------------2---------------------|
2|-------0----------1---------1---------3---------------------|
3|-------0----------0---------2-------2---2-------------------|
4|----2-----2-----2----2----2---2---0-------------------------|
5|--------------3---------0-----------------------------------|
6|--0---------------------------------------------------------|

Припев:

1|--------2----------3----------3----------------2---------2-------------|
2|--------3----------0----------0----------------3---------3-------------|
3|-----2----2-----0-----0----0-----0-----------2---2-----2---3-----------|
4|--0-----------------------------------------0-------0------------------|
5|-------------------------------------3---------------------------------|
6|-------------3-----------3---------------------------------------------|


1|------------------------------------------------------------3-----------3---------|
2|---------0---------0---------------1----------1-------------0-----------0---------|
3|---------0---------0-----0---------0----------0-----------0----0------0----0------|
4|------2-----2----2-------2-------2----2-----2----2--------------------------------|
5|-----------------------2-------3----------3-----------------------------------3---|
6|---0--------------------------------------------------3------------3--------------|


1|---------------------------------------------2---------3---------3-------|
2|--------0------------0-----------1-----------3---------0---------0-------|
3|--------0------------0-----------0--------2----2-----0----0---0-----0----|
4|-----2-----2------2-----2------2----2---0--------------------------------|
5|---------------2-------------3-----------------------------------------3-|
6|-0------------------------------------------------3---------3------------|

1|--------2---------2-------------------------------------------------------2-----|
2|--------3---------3----------0---------0--------------1---------1---------3-----|
3|-----2----2----2----2--------0---------0----0---------0---------0-------2---2---|
4|---0---------0-------------2----2----2------2-------2----2----2---2---0---------|
5|-----------------------------------------2--------3---------3-------------------|
6|------------------------0-------------------------------------------------------|

После второго куплета Шевчук 2 раза поет припев. Второй раз он играет аккордами. Перед ними красиво делать переход (тоже аккордами) :G  DD
GG DD         
Аккорды припева:
  D        G         D                     Em
 Что нам ветер?  Да на это ответит
   C            G           D                              Em  C
  Несущийся мимо.  Да сломавший крыло
        D         G              D                      Em
  И упав между нами. Так недолго любимых
      C                G      D                               Em (тут можно его и не играть)
   Разбил он обьятья,   как простое стекло

В конце играется вступление, постепенно замедляющиеся к концу.






О прекрасная даль, поглотившая небо.
Облака, как к любимой прижались к земле.
Где ты и я под простой, да не скошенной крышей
Ищем  друг  в друге  тепло... что, что...

Пр: Что нам ветер?  Да на это ответит
       Несущийся мимо.  Да сломавший крыло
       И упав между нами. Так недолго любимых
       Разбил он обьятья, как простое стекло

Мы стояли на прошлом, мы ждали начала
Прижимаясь к стене, где исчезли они
Где еще одну жизнь одна смерть обвенчала
Пару вспышек огня, да в эти смутные дни...

  Пр.



Подбирал я и мой братан.

Продолжаем грести бабос на ботах в Telegram.
Только в этот раз есть вариант автоматизировать это дело, привлекая рефералов. Вы можете заработать если »


найти лекарство
список лекарств






О сайтеАккордыХит-парадПоискУроки ФорумыИщу песню
ПрограммыСвежачок-сПодпискаСтатьи
Яндекс.Метрика