Табулатура System Of A Down | Prison Song гитара табулатуры уроки тексты песен System Of A Down текст lyrics песня аккорды песни ноты нота электрогитара струна  
   А Б В Г Д Е Ж З И К Л М Н О П Р С Т У Ф Х Ч Ш Ы Э Ю Я       Разные песни
1-9 A B C D E F G H I J K L M N O P Q R S T U V W Y Z      Все исполнители in english

    



группа System Of A Down, Табулатура песни Prison Song

Группа: System Of A Down - другие аккорды (73),   диски (8),   фотографии (22)
Табулатура песни: Prison Song
Просмотров: 2895
Прислал: Back Door Man (backman@mail.ru)




    
Author/Artist: System Of A Down
Title: Prison Song
Album: Toxicity
Transcribed by: Sergio Moreno
Email: stangaddict@hotmail.com
This song is mainly played with distortion. It sounds like Daron also
uses some other effects on the riff he plays during the verses.
The asterisks (*) mean that the measures enclosed are repeated. If you
have any comments, suggestions, or want to point out a mistake, please
email me.
The tuning for this song is as follows:
C#
G#
E
B
F#
B
|------|------------------|---------------------|-------|
|------|------------------|---------------------|-------|
|------|*-----------------|-------------3-3-3-3-|------*|
|------|*-----------------|-------------3-3-3-3-|------*|
|-0----|--0-1-3-1-0-1-3-1-|-0-1-3-1-0-1-1-1-1-1-|-------|
|-0----|--0-1-3-1-0-1-3-1-|-0-1-3-1-0-1---------|-------|
intro               repeat once
-----------------|---------|---------------|
-----------------|---------|---------------|
-----------------|---------|-------3-3-3-3-|
-----------------|---------|-------3-3-3-3-|
-0-1-3-1-0-1-3-1-|-0-1-3-1-|-------1-1-1-1-|
-0-1-3-1-0-1-3-1-|-0-1-3-1-|---------------|
                             pause
|--------------------------------|--------------------------------|
|--------------------------------|--------------------------------|
|*-------------------------------|-----------------------3-3-3-3-*|
|*-------------------------------|-----------------------3-3-3-3-*|

Продолжаем грести бабос на ботах в Telegram.
Только в этот раз есть вариант автоматизировать это дело, привлекая рефералов. Вы можете заработать если »

|--0-1-0-3-0-1-0---0-1-0-3-0-1-0-|-0-1-0-3-0-1-0---0-1-0-1-1-1-1--| |--0-1-0-3-0-1-0---0-1-0-3-0-1-0-|-0-1-0-3-0-1-0---0-1-0----------| Riff 1 repeat once (this riff played for chorus as well) |-----------------|---------------------|-------| |-----------------|---------------------|-------| |-----------------|-------------3-3-3-3-|-------| |-----------------|-------------3-3-3-3-|-------| |---0-3-1-0-1-3-1-|-0-1-3-1-0-1-1-1-1-1-|-------| |---0-3-1-0-1-3-1-|-0-1-3-1-0-1---------|-------| (riff 1) |--------------|---------------| |--------------|---------------| |--3-------3---|---3-------3---| |1---1---1---1-|-1---1---1---1-| |--------------|---------------| |--------------|---------------| Riff 2 played during verses |---------------|---------------------|-----------------| |---------------|-----3---------2-----|-----------------| |------------3--|-------3---------2---|*----------------| |------------3--|---------3---------2-|*----------------| |-0--1--0----1--|-----------1-0-------|-0-0-0-0-0-0-0-0-| |-0--1--0-------|---------------------|-0-0-0-0-0-0-0-0-| "for you and me..... for baby you and me..." ---------------------|--------------|-----------------------| ---------------------|--------------|-----------------------| ------------3-3-3-3-*|-*------------|--------------3-3-3-3-*| ------------3-3-3-3-*|-*------------|--------------3-3-3-3-*| 0-0-0-0-0-0-1-1-1-1--|--0-0---0-0-0-|-0-0-0--0-0-0-1-1-1-1--| 0-0-0-0-0-0----------|--0-0---0-0-0-|-0-0-0--0-0-0----------| "war research and successful..."








О сайтеАккордыХит-парадПоискУроки ФорумыИщу песню
ПрограммыСвежачок-сПодпискаСтатьи
Яндекс.Метрика