Аккорды Чиж и Ко | Глазами и Душой гитара табулатуры уроки тексты песен Чиж и Ко текст lyrics песня аккорды песни ноты нота электрогитара струна  
   А Б В Г Д Е Ж З И К Л М Н О П Р С Т У Ф Х Ч Ш Ы Э Ю Я       Разные песни
1-9 A B C D E F G H I J K L M N O P Q R S T U V W Y Z      Все исполнители in english

    



группа Чиж и Ко, Аккорды песни Глазами и Душой

Продолжаем грести бабос на ботах в Telegram.
Только в этот раз есть вариант автоматизировать это дело, привлекая рефералов. Вы можете заработать если »

Группа: Чиж и Ко - другие аккорды (161),   о группе (1 статей),   диски (7),   фотографии (8)
Аккорды песни: Глазами и Душой
Просмотров: 4417




    

Чиж - Глазами и Душой

 Ilya Sherenkov  2:5005/33.3333

 Чиж играет в Em, последний куплет на тон выше,
 на последний проигрыш опять в Em опускается.
 Я в Dm начинаю, на последнем куплете повышаюсь в Em, там
 и остаюсь так что:

Dm

E-5-4-5---3-2-3---1-0-1-----0---------|---1---------0-------0---------0-|
B-6-5-6---5-4-5---3-2-3----3--3-1-----|-----3---------0-------3-2-------|
G-------------------------3-------2/3-|-2---------3-------1---------2---|
D-0---------------0-------------------|-0-------------------------2-----|
A---------0---------------------------|-------------------------0-------|
E-------------------------3-----------|-------1-3-------0---------------|

E-5-4-5---3-2-3---1-0-1-----0---------|---1---------0---------------1---|
B-6-5-6---5-4-5---3-2-3----3--3-1-----|-----3---------0-0---2---------3-|
G-------------------------3-------2/3-|-2---------3-------1---2---2-----|
D-0---------------0-------------------|-0-----------------0---2-0-------|
A---------0---------------------------|---------------------0-----------|
E-------------------------3-----------|-------1-3-------0---------------|
                                                                    Ус-по..

Продолжаем грести бабос на ботах в Telegram.
Только в этот раз есть вариант автоматизировать это дело, привлекая рефералов. Вы можете заработать если »

Em (в конце). E-7-6-7---5-4-5---3-2-3-----2-0-------|---3-0---------------2-----------| B-8-7-8---7-6-7---5-4-5----1----3-0/1-|-------0-1---1---------5-4-------| G-------0---------------0-2-----------|-----------2-------3---------2---| D-------------------------------------|---------------------------4---4-| A---------0---------------0-----------|---------0-----0---------2-------| E-0---------------0-------------------|-0---------------2---------------| Повторить два раза E-----0-7-5-----------0-3---2-0-------|---3-0---------------2---------2-| B----0--------5------0-----1----3-0/1-|-------0-1---1---------5-4-------| G---0-------5---5---0-----2-----------|-----------2-------3---------4---| D-------------------------------------|---------------------------4-----| A---------0---------------0-----------|---------0-----0---------2-------| E-0---------------0-------------------|-0---------------2---------------| E-7-6-7---5-4-5---3-2-3-----2-0-------|---3-0-------------------0-------| B-8-7-8---7-6-7---5-4-5----1----3-0/1-|-------0-1---1---2---4---0-------| G-------0---------------0-2-----------|-----------2-------3---2-0-------| D-------------------------------------|-------------------4---4---------| A---------0---------------0-----------|---------0-----0-----2-----------| E-0---------------0-------------------|-0---------------2-------0-------|

поиск лекарств
список лекарств






О сайтеАккордыХит-парадПоискУроки ФорумыИщу песню
ПрограммыСвежачок-сПодпискаСтатьи
Яндекс.Метрика