Табулатура Ария | Закат гитара табулатуры уроки тексты песен Ария текст lyrics песня аккорды песни ноты нота электрогитара струна  
   А Б В Г Д Е Ж З И К Л М Н О П Р С Т У Ф Х Ч Ш Ы Э Ю Я       Разные песни
1-9 A B C D E F G H I J K L M N O P Q R S T U V W Y Z      Все исполнители in english

    



группа Ария, Табулатура песни Закат

Продолжаем грести бабос на ботах в Telegram.
Только в этот раз есть вариант автоматизировать это дело, привлекая рефералов. Вы можете заработать если »

Группа: Ария - другие аккорды (629),   о группе (7 статей),   диски (18),   фотографии (92)
Табулатура песни: Закат
Просмотров: 8722
Подобрал: Punk_Jonny (Tealen@yandex.ru)




    
1|-----4-2-0-------------|
2|---0--------4-2-0-2-2-0|
3|-1---------------------|
4|-----------------------|
5|------------------0-0-2|
6|-----0-----------------|

1|-0-----0-2-------4-2-0-----------0------0|
2|---2-------4---4-------4-5--4--2------4--|
3|-----2-------4---------------------------|
4|-----------------------------------------|
5|-0-----------------------------0----2----|
6|-----------------0----------------------0|

1|-----4-2-0-------------|----4-2-0-------------|
2|---0--------4-2-0---2-0|-----------4-2-0-2-2-0|
3|-1---------------------|----------------------|
4|-----------------------|----------------------|
5|--------------------0-2|-----------------0-0-2|
6|-----0-----------------|----0-----------------|

1|-0-----0-2-------4-2-0-----------0------0|
2|---2-------4---4-------4-5--4--2------4--|
3|-----2-------4---------------------------|
4|-----------------------------------------|
5|-0-----------------------------0----2----|
6|-----------------0----------------------0|

Проигрыш со скрипкой.

Em C D

Куплет.
    Em                  Am              D               Em
1|---------0---------------0-------------2---2---------------------|
2|-------0---0-----------1---1---------3-------3-------------------|
3|-----0-------0-------2-------2-----2-----------2-----0---0---0---|
4|---2-----------2---2-----------2-0-----------------2---2---2---2-|
5|-----------------0-----------------------------------------------|
6|-0-----------------------------------------------0---------------|
   Я вижу,        как закат      стекла оконные     плавит,

Или же просто прижимая аккорды а играя стандартным перебором (5-я,3-я,2-я,1-я,2-я,3-я и т.д.)


 Em             Am            F#        H7
День прожит, а ночь оставит тени снов в углах.
Em      Am              D          Em
Мне не вернуть назад серую птицу печали,
 Em             Am            F#        H7
Все в прошлом, так быстро тают замки в облаках.

Припев:(боем)

 E7          Am
Там все живы, кто любил меня,
C                               H7
Где восход - как праздник бесконечной жизни,
Там нет счета рекам и морям,
Но по ним нельзя доплыть домой.

Em C D

Вновь примирит все тьма, даже алмазы и пепел,
Друг равен врагу в итоге, а итог один...
Два солнца у меня на этом и прошлом свете,
Их вместе собой укроет горько-сладкий дым.

Припев.

G                        D7
Возьми меня с собой, пурпурная река,
Прочь унеси меня с собой, закат.
Am7      Am6             C
Тоска о том, что было, рвется через край,
Hm                        C
Под крики серых птичьих стай.





    

поиск лекарств
список лекарств






О сайтеАккордыХит-парадПоискУроки ФорумыИщу песню
ПрограммыСвежачок-сПодпискаСтатьи
Яндекс.Метрика