Табулатура Ария | Осколок льда (3) гитара табулатуры уроки тексты песен Ария текст lyrics песня аккорды песни ноты нота электрогитара струна  
   А Б В Г Д Е Ж З И К Л М Н О П Р С Т У Ф Х Ч Ш Ы Э Ю Я       Разные песни
1-9 A B C D E F G H I J K L M N O P Q R S T U V W Y Z      Все исполнители in english

    



группа Ария, Табулатура песни Осколок льда (3)

Продолжаем грести бабос на ботах в Telegram.
Только в этот раз есть вариант автоматизировать это дело, привлекая рефералов. Вы можете заработать если »

Группа: Ария - другие аккорды (629),   о группе (7 статей),   диски (18),   фотографии (92)
Табулатура песни: Осколок льда (3)
Просмотров: 7168
Прислал: S.Mulder (smulder@pisem.net)




    
/Tempo: slow (72 bpm)
Tuning: normal
INTRO:
(0:01 - 0:26)
RIFF 1: (play 2 times) (both guitars clean)
Gtr.1E||-------------0--------0--------0--------0--------|-------------1--------1--------1--------1--------|
     H||----------1-----1--------0--------0--------0-----|----------1-----1--------1--------1--------1-----|
     G||-------2-----------2--------2--------2--------0--|-------2-----------2--------2--------2--------2--|
     D||----2--------------------------------------------|-3-----------------------------------------------|
     A||-0-----------------------------------------------|-------------------------------------------------|
     E||-------------------------------------------------|-------------------------------------------------|
      ||                                                 |                                                 |
Gtr.2E||-------------------------------------------------|-------------------------------------------------|
     H||----------3--5--------3--------------------------|-------------------------------------------------|
     G||-2--4--5-----------2--------2--5-----2--5--------|-4--------5p4p2-----------------------------------|
     D||-------------------------------------------------|-------------------------------------------------|
     A||-------------------------------------------------|-------------------------------------------------|
     E||-------------------------------------------------|-------------------------------------------------|
      ||                                                 |                                                 |
Bass G||-------------------------------------------------|-------------------------------------------------|
     D||-------------------------------------------------|-------------------------------------------------|
     A||-0-----------------------------------0--3--------|-------------------------------------------------|
     E||-------------------------------------------------|-1-----------------------------------------------|
 
Gtr.1E|--------------0--------0--------0--------0--------|-------------0--------0--------0--------0--------||
     H|-----------3-----3--------3--------3--------3-----|----------1-----1--------0--------0--------0-----||
     G|--------2-----------2--------2--------2--------2--|-------2-----------2--------2--------2--------2--||
     D|--0-----------------------------------------------|----2--------------------------------------------||
     A|--------------------------------------------------|-0-----------------------------------------------||
     E|--------------------------------------------------|-------------------------------------------------||
      |                                                  |                                                 ||
Gtr.2E|--------------------------------------------------|-------------------------------------------------||
     H|-----------3--5--------3--------------------------|-------------------------------------------------||
     G|--2--4--5-----------2--------2--5-----2--4--------|-2-----------------------------------------------||
     D|--------------------------------------------------|-------------------------------------------------||
     A|--------------------------------------------------|-------------------------------------------------||
     E|--------------------------------------------------|-------------------------------------------------||
      |                                                  |                                                 ||
Bass G|--------------------------------------------------|-------------------------------------------------||
     D|--------------------------------------------------|-------------------------------------------------||
     A|--5-----------------------------------0--2--------|-0-----------------------------------------------||
     E|--------------------------------------------------|-------------------------------------------------||
(0:26 - 0:53)
VERSE 1:
VoiceE|---------------------------------------------------------------------------------------------------|
     H|-------------------------5-----3-------------------3-----------------------------------------------|
     G|---2--------------4---5-----------5----4---4-------------5--5---------------------------------2----|
     D|---------------------------------------------------------------------------------------------------|
     A|---------------------------------------------------------------------------------------------------|
     E|- Noch\'           u -nesla   tyazhe - ly - e      tu  -  uchi,                               no  --|
      |                                                 |                                                 |
Gtr.1E|-------------------------------------------------|-------------------------------------------------|
 +   H|-------1-----0-----1-----------1-----0-----1-----|-------1-----0-----1-----------1-----0-----1-----|
bass G|----2-----2-----2-----2-----2-----2-----2-----2--|----0-----0-----0-----0-----0-----0-----0-----0--|
     D|-------------------------------------------------|-------------------------------------------------|
     A|-0-----------------------0-----------------------|-3-----------------------3-----------------------|
     E|-------------------------------------------------|-------------------------------------------------|
 
VoiceE|---------------------------------------------------------------------------------------------------|
     H|-------------------------5-----3-------------------------------------------------------------------|
     G|---2-------------4---5------------5-----4-----5----------------------------------------------------|
     D|---------------------------------------------------------------------------------------------------|
     A|---------------------------------------------------------------------------------------------------|
     E| dni            gor\'kim sum - rakom    pol - ny.  -------------------------------------------------|
      |                                                 |                                                 |
Gtr.1E|-------------------------------------------------|-------------------------------------------------|
 +   H|-------1-----0-----1-----------5-----3-----5-----|-------1-----0-----1-----3-----1-----0-----1-----|
bass G|----2-----2-----2-----2-----4-----4-----4-----4--|----2-----2-----2-----2-----2-----2-----2-----2--|
     D|-------------------------------------------------|-------------------------------------------------|
     A|-------------------------------------------------|-0-----------------------------------------------|
     E|-1-----------------------3-----------------------|-------------------------------------------------|
...
(0:53 - 1:16)
CHORUS:
VoiceE|------------8------8---7-------5----------5--------------------------------------------------------|
     H|-------------------------------------8--------5-------5--------------------------------------------|
     G|---------------------------------------------------------------------------------------------------|
     D|---------------------------------------------------------------------------------------------------|
     A|---------------------------------------------------------------------------------------------------|
     E|--------    Ya   lyu -bil      i    ne - na -vi   -  del                ---------------------------|
      |                                                 |                                                 |
Gtr.1E|-------------------------------------------------|-------------------------------------------------|
     H|-------1-----0-----1-----------5-----3-----5-----|-------1-----0-----1-----------1-----0-----1-----|
     G|----2-----2-----2-----2-----4-----4-----4-----4--|----2-----2-----2-----2-----2-----2-----2-----2--|
     D|-------------------------------------------------|-------------------------------------------------|
     A|-------------------------------------------------|-0-----------------------0-----------------------|
     E|-1-----------------------3-----------------------|-------------------------------------------------|
      |                                                 |                                                 |
Bass G|-------------------------------------------------|-------------------------------------------------|
     D|-------------------------------------------------|-------------------------------------------------|
     A|-------------------------------------------------|-0-----------------------3--2--0-----2--0--------|
     E|-1-----------------------3-----------------------|-------------------------------------------3-----|
 
VoiceE|------------8------8---7-------5--------5-----5----------------------------------------------------|
     H|-------------------------------------8-------------------------------------------------------------|
     G|---------------------------------------------------------------------------------------------------|
     D|---------------------------------------------------------------------------------------------------|
     A|---------------------------------------------------------------------------------------------------|
     E|--------    No    te -per\'    du - sha pus - ta                         ---------------------------|
      |                                                 |                                                 |
Gtr.1E|-------------------------------------------------|-------------------------------------------------|
     H|-------1-----0-----1-----------5-----3-----5-----|-------1-----0-----1-----------1-----0-----1-----|
     G|----2-----2-----2-----2-----4-----4-----4-----4--|----2-----2-----2-----2-----2-----2-----2-----2--|
     D|-------------------------------------------------|-------------------------------------------------|
     A|-------------------------------------------------|-0-----------------------0-----------------------|
     E|-1-----------------------3-----------------------|-------------------------------------------------|
      |                                                 |                                                 |
Bass G|-------------------------------------------------|-------------------------------------------------|
     D|-------------------------------------------------|-------------------------------------------------|
     A|-------------------------------------------------|-0-----------------------------------2--0--------|
     E|-1-----------------------3-----------------------|-------------------------------------------3-----|
 
VoiceE|------------8------8---7-------5-------------5-----------------------------------------------------|
     H|------------------------------------------8--------5-----5--------------5--------------5--5--------|
     G|------------------------------------------------------------7-------5-------------------------7-5--|
     D|---------------------------------------------------------------------------------------------------|
     A|---------------------------------------------------------------------------------------------------|
     E|-------    Vsyo    ischez  -  lo,        ne  os - ta  - viv i     sle -da.             I ne znayu -|
      |                                                 |                                                 |
Gtr.1E|-------------------------------------------------|-------------------------------------------------|
     H|-------1-----0-----1-----------5-----3-----5-----|-------1-----0-----1-----------1-----0-----1-----|
     G|----2-----2-----2-----2-----4-----4-----4-----4--|----2-----2-----2-----2-----2-----2-----2-----2--|
     D|-------------------------------------------------|-------------------------------------------------|
     A|-------------------------------------------------|-3-----------------------0-----------------------|
     E|-1-----------------------3-----------------------|-------------------------------------------------|
      |                                                 |                                                 |
Bass G|-------------------------------------------------|-------------------------------------------------|
     D|-------------------------------------------------|-------------------------------------------------|
     A|-------------------------------------------------|-------------------------------------------------|
     E|-1-----------------------3-----------------------|-8-----------7-----------5-----------------------|


VoiceE|-------------------------------------------------|
     H|-------------------------------------------------|
     G|-------5--------------5--4-----5-----4-----------|
     D|--7-------------------------------------7-----7--|
     A|-------------------------------------------------|
     E| bo - li,          v grudi     os - kolok  l\'da -|
      |                                                 |
Gtr.1E|-------------------------------------------------|
 +   H|-------1-----0-----1-----------5-----3-----5-----|
bass G|----2-----2-----2-----2-----4-----4-----4-----4--|
     D|-------------------------------------------------|
     A|-------------------------------------------------|
     E|-1-----------------------3-----------------------|
(1:17 - 1:23)
RIFF 2:
Gtr.1E|-2-----------2-----------3-2h3p2-----3-2h3p2-----|-1-----------------------------------------------|
     H|-3-----------3-----------------3-----------3-----|-3-----------------------3-----------------------|
     G|-2-----------2-----------------------------------|-2-----------------------------5-----4-----5-----|
     D|-------------------------------------------------|-------------------------------------------------|
     A|-------------------------------------------------|-------------------------------------------------|
     E|-------------------------------------------------|-------------------------------------------------|
      |                                                 |                                                 |
Bass G|-------------------------------------------------|-------------------------------------------------|
     D|-------------------------------------------------|-------------------------------------------------|
     A|-0-----------------------------------0--0-h3-----|-5--------------------0-h5-----3-----2-----3-----|
     E|-------------------------------------------------|-------------------------------------------------|
(1:23 - 1:50)
VERSE 2: ( + gtr.1 the same as in verse 1 )
        Ya             pomnyu vsyo,  o chem   my  mech - ta  -  ali,                                no    
Bass G|-------------------------------------------------|-------------------------5-----------------------|
     D|-------------------------7-----------------------|----------------------5-----5--------------------|
     A|----------------------7--------------------3-----|-3-----------------------------3-----------------|
     E|-5-----------------------------5-----------------|-------------------------------------------------|
       zhizn\'          ne dlya teh,    kto lyu - bit  sny.
Bass G|-------------------------------------------------|-------------------------------------------------|
     D|-------------------------------------------------|-------------------------------------------------|
     A|-------------------------------------------------|----------------------0-h5-----3-----2-----3-----|
     E|-1-----------------------3-----------------------|-5-----------------------------------------------|
(1:51 - 2:14)
CHORUS 2: (distorted guitar joins)
                         Ya lyu - bil   i  ne - na - vi - del  
Gtr.3 E|---------|---------------------------------|---------------------------------| 
      H|---------|---------------------------------|---------------------------------| 
      G|---------|-2-------------------------------|---------------------------------| 
      D|---------|-3---------------5---------------|-7-------------------------------| 
      A|-3-2-0---|-3---------------5---------------|-7-------------------------------|
      E|---------|-1---------------3---------------|-5---------------8-7-5---7-5-3---|
(2:15 - 3:18)
SOLO:
Gtr.3E|-------------------------------------------------|-------------------------------------------------|
     H|-------------------------------------------------|-------------------------------------------------|
     G|-9bend11--------------------------------9b11release10-----------hold then release------------------|
     D|-------------------------------------------------|-------------------------------------------------|
     A|-------------------------------------------------|-------------------------------------------------|
     E|-------------------------------------------------|-------------------------------------------------|
      |                                                 |                                                 |
Bass G|-------------------------------------------------|-------------------------------------------------|
     D|-------------------------------------------------|-------------------------------------------------|
     A|-0-----------------------------------0--0-h3-----|-5--------------------0-h5-----3-----2-----3-----|
     E|-------------------------------------------------|-------------------------------------------------|
 
Gtr.3E|-------------------------------------------------|-------------------------------------------------|
     H|-------------------------------------------------|-------------------------------------------------|
     G|-9----------------------------------9---9-bend-to-12-release-9---------------------------9-bend-to-|
     D|-------------------------------------------------|-------------------------------------------------|
     A|-------------------------------------------------|-------------------------------------------------|
     E|-------------------------------------------------|-------------------------------------------------|
      |                                                 |                                                 |
Bass G|-------------------------------------------------|-------------------------------------------------|
     D|-------------------------7-----------------------|-------------------------2-----------------------|
     A|----------------------7--------------------------|----------------------2-----2--------------------|
     E|-5-----------------------------5-----------------|-0-----------------------------0-----------------|
 
Gtr.3E|-------------------------------------------------|-------------------------------------------------|
     H|-------------------------------------------------|-------------------------------------------------|
     G|-to12-partial release to 10 bend 12 rel 10 rel 9 |------------------------/17----16----16----14----|
     D|-------------------------------------------------|-------------------------------------------------|
     A|-------------------------------------------------|-------------------------------------------------|
     E|-------------------------------------------------|-------------------------------------------------|
      |                                                 |                                                 |
Bass G|-------------------------------------------------|-------------------------------------------------|
     D|-------------------------------------------------|-------------------------------------------------|
     A|-------------------------------------------------|----------------------0-h5-----3-----2-----3-----|
     E|-1-----------------------3-----------------------|-5-----------------------------------------------|
 
Gtr.3E|-------------------------------------------------|-------------------------------------------------|
     H|-------------------------------------------------|-------------------------------------------------|
     G|-14---------------------------------14--14bend16--16rel14-p-12-------------------------------------|
     D|-------------------------------------------------|-------------------------------------------------|
     A|-------------------------------------------------|-------------------------------------------------|
     E|-------------------------------------------------|-------------------------------------------------|
      |                                                 |                                                 |
Bass G|-------------------------------------------------|-------------------------------------------------|
     D|-------------------------7-----------------------|-------------------------2-----------------------|
     A|----------------------7--------------------------|----------------------2-----2--------------------|
     E|-5-----------------------------5-----------------|-0-----------------------------0-----------------|
 
Gtr.3E|----------------------------------------------22---------------------------22-bend24--release------|
     H|----------------------------------------------20bend22-------------------(20b22)-------------------|
     G|-12b14-------------------14b16-------------------|-------------------------------------------------|
     D|-------15--15------------------17--17------------|-------------------------------------------------|
     A|-------------------------------------------------|-------------------------------------------------|
     E|-------------------------------------------------|-------------------------------------------------|
      |                                                 |                                                 |
Bass G|-------------------------------------------------|-------------------------------------------------|
     D|-------------------------------------------------|-------------------------------------------------|
     A|-------------------------------------------------|-------------------------------------------------|
     E|-1-----------------------3-----------------------|-5--5--5--5--5--5--5--5--5--5--5--5--5--5--5--5--|
 
Gtr.3E|-------------------------------------------------|-------------------------------------------------|
Gtr.4H|-13-12-------------13-12-13-12-------13-12-------|-13-12-------------13-12-13-12-------13-12-------|
     G|-14-12-14-12-14----14-12-14-12-14-12-14-12-14-12-|-14-12-14-12-14----14-12-14-12-14-12-14-12-14-12-|
     D|-------15-14-15----------------15-14-------15-14-|-------14-12-14----------------14-12-------14-12-|
     A|-------------------------------------------------|-------------------------------------------------|
     E|-------------------------------------------------|-------------------------------------------------|
      |                                                 |                                                 |
Bass G|-------------------------------------------------|-------------------------------------------------|
     D|-------------------------------------------------|-------------------------------------------------|
     A|-------------------------------------------------|-------------------------------------------------|
     E|-1--1--1-----1-----1--1--3--3--3-----3--3--3-----|-5--5--5-----5-----5--5--3--3--3-----3--3--3-----|
 
Gtr.3E|-------------------------------------------------|-------------------------------------------------|
Gtr.4H|-13-12-------------13-12-13-12-------13-12-------|-------15b17-------------------------------------|
     G|-14-12-14-12-14----14-12-14-12-14-12-14-12-14-12-|-14----------------------------------------------|
     D|-------15-14-15----------------15-14-------15-14-|-------------------------------------------------|
     A|-------------------------------------------------|-------------------------------------------------|
     E|-------------------------------------------------|-------------------------------------------------|
      |                                                 |                                                 |
Bass G|-------------------------------------------------|-------------------------------------------------|
     D|-------------------------------------------------|-------------------------------------------------|
     A|-------------------------------------------------|-------------------------------------------------|
     E|-1--1--1-----1-----1--1--3--3--3-----3--3--3-----|-5-----------------------------------------------|
...
(3:19 - 3:45)
VERSE 3:
        Pust\'          kazhdyy sam   naho  - dit   do -  ro  -  ogu,                               moy 
Gtr.1E|-0-----------------------------------------------|-0-----------------------------------0-----------|
     H|-1-----------------------------------------------|-1--------------------------------------1--------|
     G|-2-----------------------------------------------|-0-----------------------------------------0-----|
     D|-2-----------------------------------------------|-2-----------------------------------------------|
     A|-0-----------------------------------------------|-3-----------------------------------------------|
     E|-------------------------------------------------|-------------------------------------------------|
        put\'           budet v sot - nyu raz   dlin - ney.  
Gtr.1E|-1-----------------------3-----------------------|-0-----------------------------------------------|
     H|-1-----------------------3-----------------------|-1-----------------------3-----1-----0-----1-----|
     G|-2-----------------------4-----------------------|-2--------------------------2-----2-----2-----2--|
     D|-3-----------------------5-----------------------|-2-----------------------------------------------|
     A|-3-----------------------5-----------------------|-0-----------------------------------------------|
     E|-1-----------------------3-----------------------|-------------------------------------------------|
(3:45 - 4:22) CHORUS
(4:22 - 5:21) Repeat RIFF 1, first with only gtr.2 part+vocal, then with distortion gtr. doubling bass
--------------------------------------------------------------------------------


Продолжаем грести бабос на ботах в Telegram.
Только в этот раз есть вариант автоматизировать это дело, привлекая рефералов. Вы можете заработать если »


лекарство в аптеке
список лекарств






О сайтеАккордыХит-парадПоискУроки ФорумыИщу песню
ПрограммыСвежачок-сПодпискаСтатьи
Яндекс.Метрика