Басовая табулатура Red Hot Chili Peppers | Yertle The Turtle гитара табулатуры уроки тексты песен Red Hot Chili Peppers текст lyrics песня аккорды песни ноты нота электрогитара струна  
   А Б В Г Д Е Ж З И К Л М Н О П Р С Т У Ф Х Ч Ш Ы Э Ю Я       Разные песни
1-9 A B C D E F G H I J K L M N O P Q R S T U V W Y Z      Все исполнители in english

    



группа Red Hot Chili Peppers, Басовая табулатура песни Yertle The Turtle

Группа: Red Hot Chili Peppers - другие аккорды (395),   о группе (3 статей),   диски (15),   фотографии (113)
Басовая табулатура песни: Yertle The Turtle
Просмотров: 1921
Прислал: Back Door Man (backman@mail.ru)




    
Intro play four times and after second time the lick below
G |-----------|--3--5--3--|----------|--3-------|
D |---5--5----|-----------|--5--5-5--|----------|
A |-----------|--1--3--1--|----------|--1-------|
E |---3--3----|-----------|--3--3-3--|----------|
Flea's lick
G |-------------------|
D |------------17p15--|
A |------15p17--------|
E |---15--------------|

Basic riff under verse - it is hard to hear under the guitar
it goes like this - I think...
G |---------3-5-3--|
D |-----3-5--------|
A |----------------|
E |---3------------|

Play two times and after first time the lick below
G |-----------|--3--5--3--|----------|--3-------|
D |---5--5----|-----------|--5--5-5--|----------|
A |-----------|--1--3--1--|----------|--1-------|
E |---3--3----|-----------|--3--3-3--|----------|
Flea's lick
G |-------------------|
D |------------17p15--|
A |------15p17--------|

Продолжаем грести бабос на ботах в Telegram.
Только в этот раз есть вариант автоматизировать это дело, привлекая рефералов. Вы можете заработать если »

E |---15--------------| Interlude G |-----------|-----------|-----------|------| D |-----------|-----------|-----------|------| A |--3-3-3-3--|--3-3-3-3--|--1-1-1-1--|--0---| E |-----------|-----------|-----------|------| G |-----------|-----------|---------|--------| D |-----------|-----------|---------|--------| A |------1-1--|--3-3-5-5--|---------|--4-3---| E |--3-3------|-----------|---3-----|--------| Interlude G-note (E |--3--|) is played sometimes between G |--3--5--|--------|--------|--------| D |--------|--------|--------|--------| A |--------|--1--3--|--1--3--|--1--3--| E |--------|--------|--------|--------| G |--------|--------|--------|--------|--------| D |--------|--------|--------|--------|---3----| A |--1--3--|--1--3--|--1--3--|--1--3--|--------| E |--------|--------|--------|--------|--------|








О сайтеАккордыХит-парадПоискУроки ФорумыИщу песню
ПрограммыСвежачок-сПодпискаСтатьи
Яндекс.Метрика