Табулатура Nightwish | Gethsemane гитара табулатуры уроки тексты песен Nightwish текст lyrics песня аккорды песни ноты нота электрогитара струна  
   А Б В Г Д Е Ж З И К Л М Н О П Р С Т У Ф Х Ч Ш Ы Э Ю Я       Разные песни
1-9 A B C D E F G H I J K L M N O P Q R S T U V W Y Z      Все исполнители in english

    



группа Nightwish, Табулатура песни Gethsemane

Продолжаем грести бабос на ботах в Telegram.
Только в этот раз есть вариант автоматизировать это дело, привлекая рефералов. Вы можете заработать если »

Группа: Nightwish - другие аккорды (414),   о группе (12 статей),   диски (6),   фотографии (25)
Табулатура песни: Gethsemane
Просмотров: 2013
Прислал: Back Door Man (backman@mail.ru)




    

    Nightwish - Gethsemane
    Transcribed by Paul K. Pekkarinen (paulkp@hotmail.com)


|-----------------------12------------------------------------------------|
|----------------8-12-8----------12-10-12-8-12-7-12---12-10-12-8-12-7-12--|
|---------9----9---------------9--------------------9---------------------|
|---5-9-5-----------------------------------------------------------------|
|-7-----------------------------------------------------------------------|
|-------------------------------------------------------------------------|


|----------------------------------|--------------------------------------|
|---12-10-12-8-12-7-12-------------|----------------------------13--------|
|-9--------------------9---8---9~--|---------------------9-12-9-----------|
|----------------------------------|-------------10---10------------------|
|----------------------------------|------7-10-7--------------------------|
|----------------------------------|-8--8---------------------------------|


|-------------------------------------------------------------------------|
|-------------------------------------------------------------------------|
|---5--4-2-4-2----------2---4-2------4--------------4-----4--2------------|
|--------------5|2--4-5---5-----5-4--4--------------4-----4--2--5--4--2---|
|-3----------------------------------2----2-.-.-.-2-2-----2--0--5--4--2---|
|---------------------------------------------------------------3--2--0---|

    "Told no bell for.."  "But let this cup of suffering pass from me"

|-------------------------------------------------------------------------|
|-------------------------------------------------------------------------|
|--------------------|-4-2-------2-2-2--------5---------------------------|
|-2--2-2--2-2-2--2-2-|-4-2-------2-2-2--------5---------------------------|
|-2--2-2--2-2-2--2-2-|-2-0--0-0--0-0-0--0-0---3------5s--3s--5s--7~--7----|
|-0--0-0--0-0-0--0-0-|-----------------------------------------------0----|

    "..done..."                               "The Lord weeps for me"

|-------------------------------------------------------------------------|
|-------------------------------------------------------------------------|
|-2-----------------------------5----7----5-------------7--2--------------|
|-2-----------------------------5----7----5-------------7--2--------------|
|-0--0---0---0-0-0---0---0-0----3----5----3-------------5--0--------------|
|-------------------------------------------------------------------------|

    "But my tears fall for you"

|-------------------------------------------------------------------------|
|-------------------------------------------------------------------------|
|--7------------------------------------------7---------------------------|
|--7-------------7----------------------------7---------------------------|
|--5-------------7--------------7-7-7-.-.-.---5---------------------------|
|----------------5--------------------------------------------------------|

    (Before flute solo)

|-------------------------------------------------------------------------|
|-------------------------------------------------------------------------|
|-------------------------------------------------------------------------|
|---------------------------------4s3-------------------------------------|
|-4---4-4---4---4-4---4---4-4-4-4-----4---4-4---4---4-4|4h5p4---4---------|
|-------------------------------------------------------------7---7-5-4---|


|------------------------------------------------------------------------------------|
|------------------------------------------------------------------------------------|
|------------------------------------------------------------------------------------|
|---------------------------------4s3-------------------5-4--|------------------7s<--|
|-4---4-4---4---4-4---4---4-4-4-4-------6---6----7--7-7-3-2--|--6---6----5--5-5-5s<--|
|---------------------------------------4---4----5--5-5------|--4---4----3--3-3------|

    (Flute solo background [play 2x])
    7x.........                3x......

Продолжаем грести бабос на ботах в Telegram.
Только в этот раз есть вариант автоматизировать это дело, привлекая рефералов. Вы можете заработать если »

|-------------------------------------------------------------------------| |-------------------------------------------------------------------------| |---------|--------|------|--------|-------4-----4--5---------------------| |-6-------|-6-<-4--|-6----|-6------|-2-----4-----4--5---------------------| |-4--4-4--|-4-<-2--|-4----|-4--4-4-|-2-----2-----2--3---------------------| |---------|--------|------|--------|-0------------------------------------| (==Violins & Tarja==) "I knew you never before" |------------------------------------------------------------------------------------| |------------------------------------------------------------------------------------| |---------------------------------7--7---5------5------5------5------|----s7---s9----| |-2---------2---------2--------|--7--7---5------5------5------5------|x2--s7---s9----| |-2---------2---------2--------|--5--5---3--3-3-3--3-3-3--3-3-3--3-3-|----s5---s7----| |-0---------0-0-.-.-.-0-0-.-.--|-----------------------------------------------------| "But the love.." |-------------------------------------------------------------------------| |-------------------------------------------------------------------------| |-5-4-----------------------------9---7s9-7s9----5-4----------------------| |-----7-5-4-------2----4~--5~-----9---7s9-7s9--------7-5-4----------------| |-----------7-5-------------------7---5s7-5s7-----------------7-----------| |-------------------------------------------------------------------------| "Have made you mine, 'till all my years are gone" |-------------------------------------------------------------------------| |-------------------------------------------------------------------------| |--7---------------------------------------------7--------9s<-------------| |--7-------------7-------------------------------7--------9s<-------------| |--5-------------7--------------7-7-7-.-.-.------5--------7s<-------------| |----------------5--------------------------------------------------------| (=="Without you / The poetry within me is dead"==) |-------------------------------------------------------------------------| |-------------------------------------------------------------------------| |--7----------------5-----------------7---------2--------2----------------| |--7------2---------5-----------------7---------2--------2----------------| |--5------2---------3-.-.-.---0--2-3--5-.-.-.---0--------0----------------| |---------0-.-.-.---------------------------------------------------------| |-------------------------------------------------------------------------| |-------------------------------------------------------------------------| |------------------------2--4--5----2---4---5---4---2--2---4---2----------| |-2--------2~---4~---5~-------------------------------------------4-------| |-2---------------------------------------------------------------5-------| |-0-.-.-.-----------------------------------------------------------------| |-------------------------------------------------------------------------| |-------------------------------------------------------------------------| |-------------------------------------------------------------------------| |-5----------------7------------------------------------------------------| |-5----------------7------------------------------------------------------| |-3----------------5------------------------------------------------------| (==Guitar solo==) A beta version of the end theme.. (it has two guitars, this is one) |-----------------15---------15----15--18--22--18--15-----------15--------| |--------11-15-11---------15------------------------------18--------------| |-12--12---------------15-------------------------------------------------| |-------------------------------------------------------------------------| |-------------------------------------------------------------------------| |-------------------------------------------------------------------------|

поиск лекарств
список лекарств






О сайтеАккордыХит-парадПоискУроки ФорумыИщу песню
ПрограммыСвежачок-сПодпискаСтатьи
Яндекс.Метрика