Табулатура Nightwish | Elvenpath гитара табулатуры уроки тексты песен Nightwish текст lyrics песня аккорды песни ноты нота электрогитара струна  
   А Б В Г Д Е Ж З И К Л М Н О П Р С Т У Ф Х Ч Ш Ы Э Ю Я       Разные песни
1-9 A B C D E F G H I J K L M N O P Q R S T U V W Y Z      Все исполнители in english

    



группа Nightwish, Табулатура песни Elvenpath

Работа в Европе для граждан РФ, Украины, СНГ

  • минимальная зарплата $500.
  • виза и контракт на полгода, возможно продление
  • проживание оплачивает работодатель
  • нужен только загранпаспорт
  • оформление 190 €
  • данное предложение - отличная возможность эмигрировать в Европу и закрепиться здесь навсегда.

  • Мы свяжемся с Вами по WhatsApp или Viber и ответим на любые вопросы.
    на нашем сайте можно почитать подробнее »

    Группа: Nightwish - другие аккорды (414),   о группе (12 статей),   диски (6),   фотографии (25)
    Табулатура песни: Elvenpath
    Просмотров: 1995
    Прислал: Back Door Man (backman@mail.ru)




        
    NIGHTWISH - "Elvenpath"
    	From the album "Angels Fall First"
    	Written by Tuomas Holopainen
    
    This is my first tab !
    If you have corrections, e-mail me at rx650@free.fr or rx650@aol.com
    
    INTRO (0:00)
    
    RIFF (0:25)
    e:-----------------------------------------------------------------------------|
    B:-----------------------------------------------------------------------------|
    G:-----------------------------------------------------------------------------|
    D:-----------0-----------------------------------------------------------------|
    A:---3-2-0-----3---------------------------------------------------------------|
    E:-1-------3-----3-------------------------------------------------------------|
    
    e:-----------------------------------------------------------------------------|
    B:-----------------------------------------------------------------------------|
    G:--------5-----------------------------------------2-0------------------------|
    D:-7-7-5--5-----7-7-5--7-----7-7-5--3-------------------0----------------------|
    A:-7-7-5--3-----7-7-5--7-----7-7-5--3-------3-2-0------------------------------|
    E:-5-5-3--------5-5-3--5-----5-5-3--1-----1-------3----------------------------|
    
    e:-----------------------------------------------------------------------------|
    B:-----------------------------------------------------------------------------|
    G:--------5--------------------------------------------------------------------|
    D:-7-7-5--5-----7-7-5--7-----7-7-5--3---------------0--------------------------|
    A:-7-7-5--3-----7-7-5--7-----7-7-5--3-------3-2-0-----3------------------------|
    E:-5-5-3--------5-5-3--5-----5-5-3--1-----1-------3-----3----------------------|
    
    VERSE (0:53)
    e:-----------------------------------------------------------------------------|
    B:-----------------------------------------------------------------------------|
    G:-------------7-10------------------------------------------------------------|
    D:-7-7--8-5-7--7-10--7---7-7--8-5-7-7-----------------2------------------------|
    A:-7-7--8-5-7--5-8---7---7-7--8-5-7-7---8-7-5-3\------2------------------------|
    E:-5-5--6-3-5--------5---5-5--6-3-5X5-------------1-3-0------------------------|
    
    (1:07)
    Every chords are played several times
    e:-----------------------------------------------------------------------------|
    B:-----------------------------------------------------------------------------|
    G:-----------------------------------------------------------------------------|
    D:-------------7-10------------------------------------------------------------|
    A:-7-7--8-5-7--5-8---7---7-7--8-5-7--7---7--7---7------------------------------|
    E:-5-5--6-3-5--------5---5-5--6-3-5--5-X-5--5-X-5------------------------------|
    p.m. . . . . . . . . . . . . . . .
    
    CHORUS (1:19)
    e:-----------------------------------------------------------------------------|
    B:-----------------------------------------------------------------------------|
    G:-----------------------------------------------------------------------------|
    D:-5----------------------------------7-------7-7------------------------------|
    A:-3-3-..-5------8------7------3------5-5-..--5-5--5--7-7-7-------5--7-7-7...--|
    E:--------3-3-..-6-6-..-5-5-..-1-1-..------------------------------------------|
       p.m. . . . . . . . . . . . . . . . . .. . . . .. . . . . . . . . . . . . . .
    
    e:-----------------------------------------------------------------------------|
    B:-----------------------------------------------------------------------------|
    G:-----------------------------------------------------------------------------|
    D:-5---------------------------------------------------------------------------|
    A:-3-3-..-5------8------7------3------2----------------------------------------|
    E:--------3-3-..-6-6-..-5-5-..-1-1-..-0----------------------------------------|
       p.m. . . . . . . . . . . . . . .
    
    Back to the INTRO RIFF (1:43)
    
    Узнай ВСЕ о своем друге в ВК или FB
    VERSE (2:09) CHORUS (2:35) BREAK (2:59) Part 1 e:-----------------------------------------------------------------------------| B:-----------------------------------------------------------------------------| G:-------------------------2-0-------------------------------------------------| D:-7-7-5-7-7-------------------0-----7-7-5-7-7---------------0-----------------| A:-7-7-5-7-7-------3-2-0-------------7-7-5-7-7-------3-2-0-----3---------------| E:-5-5-3-5-5-----1-------3-----------5-5-3-5-5-----1-------3-----3-------------| Part 2 (3:12) e:-----------------------------------------------------------------------------| B:-----------------------------------------------------------------------------| G:-----------------------------------------------------------------------------| D:---------------------------------------------------------2 TIMES-------------| A:-2-3-2---2-2-3-3---2-3-2-2-3-5-5---------------------------------------------| E:-0-1-0---0-0-1-1---0-1-0-0-1-3-3---------------------------------------------| Part 3 (3:25) * = harmonic e:-----------------------------------------------------------------------------| B:-----------------------------------------------------------------------------| G:-----------------------------------------------------------------------------| D:-7------------------------------------------2--------------------------------| A:-7---8*-7*----10*-8*---8*-7*--7/6/5/4/3/2/3-0--------------------------------| E:-5-5--------5--------5-------------------------------------------------------| p.m. . . . . . . e:-----------------------------------------------------------------------------| B:-----------------------------------------------------------------------------| G:-----------------------------------------------------------------------------| D:-7--------------------8-8-8--------------------------------------------------| A:-7---8*-7*----10*-8*--8-8-8--------------------------------------------------| E:-5-5--------5---------6-6-6--------------------------------------------------| e:-----------------------------------------------------------------------------| B:-----------------------------------------------------------------------------| G:-----------------------------------------------------------------------------| D:-7------------------------------------------2--------------------------------| A:-7---8*-7*----10*-8*---8*-7*--7/6/5/4/3/2/3-0--------------------------------| E:-5-5--------5--------5------------------------------------------------------- p.m. . . . . . . e:-----------------------------------------------------------------------------| B:-----------------------------------------------------------------------------| G:----------------------7------------------------------------------------------| D:-7--------------------7------------------------------------------------------| A:-7---8*-7*----10*-8*--5------------------------------------------------------| E:-5-5--------5----------------------------------------------------------------| Play the part 3 two times. Part 2 (3:53) e:-----------------------------------------------------------------------------| B:-----------------------------------------------------------------------------| G:-----------------------------------------------------------------------------| D:---------------------------------------------------------2 TIMES-------------| A:-2-3-2---2-2-3-3---2-3-2-2-3-5-5---------------------------------------------| E:-0-1-0---0-0-1-1---0-1-0-0-1-3-3---------------------------------------------| GUITAR SOLO (4:04) Play the intro riff

    найти лекарство
    список лекарств

    Сайт для заработка денег

    Сервис для заработка в Интернете! Описание и регистрация

    zardenint.ru








    О сайтеАккордыХит-парадПоискУроки ФорумыИщу песню
    ПрограммыСвежачок-сПодпискаСтатьи
    Яндекс.Метрика