Табулатура Rammstein | Das Modell гитара табулатуры уроки тексты песен Rammstein текст lyrics песня аккорды песни ноты нота электрогитара струна  
   А Б В Г Д Е Ж З И К Л М Н О П Р С Т У Ф Х Ч Ш Ы Э Ю Я       Разные песни
1-9 A B C D E F G H I J K L M N O P Q R S T U V W Y Z      Все исполнители in english

    



группа Rammstein, Табулатура песни Das Modell

Группа: Rammstein - другие аккорды (48),   о группе (7 статей),   диски (19),   фотографии (23)
Табулатура песни: Das Modell
Просмотров: 3322
Подобрал: TiMyR (timur_millenium@mail.ru)




    
ритм очень быстрый

куплет:

E---------------------------       ------------------

B---------------------------       ------------------

G---------------------------       0----3-2-0-2------

D--555555-8-7-5-7------4-0--       --------------3-0-

A---------------------------       ------------------

E---------------------------       ------------------

 и так постоянно

до проигрыша:

E-6---5----3-1---6----5-----10-----

проигрыш:

E--10-6---6-10-6-10-11-10-5---5-10-8  

B-------8-------------------6-------

Продолжаем грести бабос на ботах в Telegram.
Только в этот раз есть вариант автоматизировать это дело, привлекая рефералов. Вы можете заработать если »

G----------------------------------- D----------------------------------- A----------------------------------- E----------------------------------- E--10-6---6-10-6-10-11-10-5---5-10------11 и так 4 раза B-------8-------------------6------------- G----------------------------------------- D----------------------------------------- A----------------------------------------- E----------------------------------------- потом тоже самое что до проигрыша








О сайтеАккордыХит-парадПоискУроки ФорумыИщу песню
ПрограммыСвежачок-сПодпискаСтатьи
Яндекс.Метрика