Табулатура Muse | Micro Cuts гитара табулатуры уроки тексты песен Muse текст lyrics песня аккорды песни ноты нота электрогитара струна  
   А Б В Г Д Е Ж З И К Л М Н О П Р С Т У Ф Х Ч Ш Ы Э Ю Я       Разные песни
1-9 A B C D E F G H I J K L M N O P Q R S T U V W Y Z      Все исполнители in english

    



группа Muse, Табулатура песни Micro Cuts

Группа: Muse - другие аккорды (28),   о группе (3 статей),   диски (3),   фотографии (45)
Табулатура песни: Micro Cuts
Просмотров: 1514
Прислал: СТС




    
INTRO

Gtr.1 (elec.)

     Dm

e||------------0---------|--------------0---------|-------------0------|

B||o-----0-------0----0--|--------0-------0----0--|--------0------0---0|

G||---0----0-------0-----|-----0----0-------0-----|-----0----0-----0---|

D||-2--------------------|--2---------------------|--2-----------------|

A||o---------------------|------------------------|--------------------|

D||----------------------|------------------------|--------------------|

  

e||----------0---------||

B||----0-------0----0-o||

G||--0----0-------0----||

D||2-------------------||

A||-------------------o||

D||--------------------||



 w/slight distortion



            Gm(E bass)                         Dm(F bass)     D(F# bass)

e|-----------------0-----------|----------------0-----------|--------0----0-|

B|---------0----------0------0-|--------1----------1------1-|------0-----0--|

G|-----0------0----------0-----|----2------2----------2-----|---0-------1---|

D|-2---------------------------|2---------------------------|-2-------2-----|

A|-----------------------------|----------------------------|---------------|

D|-----------------------------|----------------------------|---------------|



    Gm                                             Dm

e|--------------0----------0--------|--------------0----------0---------

B|--------1-------1----1----1----1--|--------1-------1----1----1----1---

G|-----2----2-------2----------2----|-----2----2-------2----------2-----

D|--2-------------------------------|--2--------------------------------

A|----------------------------------|-----------------------------------

D|----------------------------------|-----------------------------------





e||------------------0----------0--------|

B||------------0-------0----0----0----0--|

G||---------0----0-------0----------0----|

D||------2-------------------------------|

A||--------------------------------------|

D||--------------------------------------|





    A7(C# bass)                             Dm

e|--------------2----------2--------|--------------0----------0---------

B|--------0-------0----0----0----0--|--------0-------0----0----0----1---

G|-----2----2-------2----------2----|-----0----0-------0----------0-----

D|--1-------------------------------|--2--------------------------------

A|----------------------------------|-----------------------------------

D|----------------------------------|-----------------------------------





e||---------------0----------0----------0--||

B||------------0----------0----------0-----||

G||---------0----------0----------0--------||

D||------2----------2----------2-----------||

A||----------------------------------------||

D||----------------------------------------||





VERSE

    Dm                                 Gm(E bass)

e||------------------0------------|------------------0------------|

B||o---------0----------0------0--|----------1----------1------1--|

G||------0------0----------0------|------2------2----------2------|

D||--2----------------------------|--2----------------------------|

A||o------------------------------|-------------------------------|

D||-------------------------------|-------------------------------|



   (Verses 3+4 see block lyric)



    Dm(F bass)      D(F# bass)         Gm

e|--------------0--------------0--|--------------0----------0-----------

B|----------0--------------0------|--------1-------1----1----1----1-----

G|------0--------------1----------|-----2----2-------2----------2-------

D|--2--------------2--------------|--2----------------------------------

A|--------------------------------|-------------------------------------

E|--------------------------------|-------------------------------------



e||--------------0----------0--------|

B||--------1-------1----1----1----1--|

G||-----2----2-------2----------2----|

D||--2-------------------------------|

A||----------------------------------|

D||----------------------------------|



Dm

e|------------0----------0------|----------2-------2------|-------0-----0---|

B|------0-------0----0----0----0|-----0------0---0---0---0|----0----0—-0—0-0|

G|---0----0-------0----------0--|--2----2------2-------2--|--0---0----0---0-|

D|2-----------------------------|1------------------------|2----------------|

A|------------------------------|-------------------------|-----------------|

D|------------------------------|-------------------------|-----------------|



                                                       N.C.

e|--------------0--------------0--------------0--||--x--x----x--x----x-x||

B|----------0--------------0--------------0-----o||--x--x----x--x----x-x||

G|------0--------------0--------------0----------||--x--x----x--x----x-x||

D|--2--------------2--------------2--------------||---------------------||

A|----------------------------------------------o||---------------------||

D|-----------------------------------------------||---------------------||



CHORUS

  Gtr.1+Gtr.2(elec.)

   (Gm)                       (D7b9)                       (Gm)

e||--6--6--6--6--6--6--6--6--|-------------------|--6--6--6--6--6--6--6--6--|

B||--8--8--8--8--8--8--8--8--|-------------------|--8--8--8--8--8--8--8--8--|

G||--7--7--7--7--7--7--7--7--|-------------------|--7--7--7--7--7--7--7--7--|

D||--5--5--5--5--5--5--5--5--|--4-4-4-4-4-4-4-4--|--5--5--5--5--5--5--5--5--|

A||--5--5--5--5--5--5--5--5--|--0-0-0-0-0-0-0-0--|--5--5--5--5--5--5--5--5--|

D||--5--5--5--5--5--5--5--5--|--0-0-0-0-0-0-0-0--|--5--5--5--5--5--5--5--5--|

    



  Gtr.2 w/heavy distortion

                                                        (D7b9)

e|--6--6--6--6--6--6--6--6--|--6--6--6--6--6--6--6--6--|-------------------|

B|--8--8--8--8--8--8--8--8--|--8--8--8--8--8--8--8--8--|-------------------|

G|--7--7--7--7--7--7--7--7--|--7--7--7--7--7--7--7--7--|-------------------|

D|--5--5--5--5--5--5--5--5--|--5--5--5--5--5--5--5--5--|--4-4-4-4-4-4-4-4--|

A|--5--5--5--5--5--5--5--5--|--5--5--5--5--5--5--5--5--|--0-0-0-0-0-0-0-0--|

D|--5--5--5--5--5--5--5--5--|--5--5--5--5--5--5--5--5--|--0-0-0-0-0-0-0-0--|







  (Gm)

e|--6--6--6--6--6--6--6--6--|--6--6--6--6--6--6--6--6--|--6-6-6-6-6-6-6-6--|

B|--8--8--8--8--8--8--8--8--|--8--8--8--8--8--8--8--8--|--8-8-8-8-8-8-8-8--|

G|--7--7--7--7--7--7--7--7--|--7--7--7--7--7--7--7--7--|--7-7-7-7-7-7-7-7--|

D|--5--5--5--5--5--5--5--5--|--5--5--5--5--5--5--5--5--|--5-5-5-5-5-5-5-5--|

A|--5--5--5--5--5--5--5--5--|--5--5--5--5--5--5--5--5--|--5-5-5-5-5-5-5-5--|

D|--5--5--5--5--5--5--5--5--|--5--5--5--5--5--5--5--5--|--5-5-5-5-5-5-5-5--|



  (D7b9)*                            (E7#9)                             (Abdim)

e|------------------------|-10-10-10-10-10-10-10-10|------------------------|

B|-13-13-13-13-13-13-13-13|--9--9--9--9--9--9--9--9|-12-12-12-12-12-12-12-12|

G|-11-11-11-11-11-11-11-11|-12-12-12-12-12-12-12-12|-10-10-10-10-10-10-10-10|

D|-12-12-12-12-1--12-12-12|-12-12-12-12-12-12-12-12|-12-12-12-12-12-12-12-12|

A|-12-12-12-12-12-12-12-12|-10-10-10-10-10-10-10-10|-11-11-11-11-11-11-11-11|

D|--0--0--0--0--0--0--0--0|------------------------|------------------------|



  (A7sus4)

e|----------------------------------|----------------------------------|

B|--10--10--10--10--10--10--10--10--|--10--10--10--10--10--10--10--10--|

G|--12--12--12--12--12--12--12--12--|--12--12--12--12--12--12--12--12--|

D|--12--12--12--12--12--12--12--12--|--12--12--12--12--12--12--12--12--|

A|--12--12--12--12--12--12--12--12--|--12--12--12--12--12--12--12--12--|

D|----------------------------------|----------------------------------|



    A7                                                           To Coda@

e|----------------------------------|----------------------------------||

B|--10--10--10--10--10--10--10--10--|--10--10--10--10--10--10--10--10--||

G|--12--12--12--12--12--12--12--12--|--12--12--12--12--12--12--12--12--||

D|--11--11--11--11--11--11--11--11--|--11--11--11--11--11--11--11--11--||

A|--12--12--12--12--12--12--12--12--|--12--12--12--12--12--12--12--12--||

Продолжаем грести бабос на ботах в Telegram.
Только в этот раз есть вариант автоматизировать это дело, привлекая рефералов. Вы можете заработать если »

D|----------------------------------|----------------------------------|| Dm Gtr.1 D.$.al Coda Gtr.2 tacet w/repeats e||--------------0---------|--------------0---------|--------------0--- B||--------0-------0----0--|--------0-------0----0--|--------0--------- G||-----0----0-------0-----|-----0----0-------0-----|-----0----0------- D||--2---------------------|--2---------------------|--2--------------- A||------------------------|------------------------|------------------ D||------------------------|------------------------|------------------ e||--------|--------------0---------|| B||-0----0-|--------0-------0----0--|| G||---0----|-----0----0-------0-----|| D||--------|--2---------------------|| A||--------|------------------------|| D||--------|------------------------|| Dm Gtr.1 e||-----------------|-----------------|-----------------|---------------|| B||-----------------|-----------------|-----------------|---------------|| G||--7*-------------|-----------------|-----------------|---------------|| D||-----------------|-----------------|-----------------|---------------|| A||--5*-------------|-----------------|-----------------|------------5--|| D||-----------------|-----------------|-----------------|---------------|| w/ad lib.feedback+whammy fx *Hold notes down,do not strike BRIDGE (D bass) (E bass) (G bass) e||----------------------------------|--------------------------|------------ B||----------------------------------|--------------------------|------------ G||--10--10--10--10--10--10--10--10--|--9--9--9--9--7--7--7--7--|--6--6--6-- D||----------------------------------|--------------------------|------------ A||---8---8---8---8---8---8---8---8--|--7--7--7--7--5--5--5--5--|--4--4--4-- D||----------------------------------|--------------------------|------------ e||--------------|--------------------------| B||--------------|--------------------------| G||6--6--6--6--6-|--4--4--4--4--6--6—-6-—6--| D||--------------|--------------------------| A||4--4--4--4--4-|--2--2--2--2--4--4--4--4--| D||--------------|--------------------------| (F# bass) (A bass) e|--------------------------|------------------------------|----------------- B|--------------------------|------------------------------|----------------- G|--7--7--7--7--7--7--7--7--|--9--9--9--9--10--10--10--10--|--11--11--11--11- D|--------------------------|------------------------------|----------------- A|--5--5--5--5--5--5--5--5--|--7--7--7--7---8---8---8---8--|---9---9---9---9- D|--------------------------|------------------------------|----------------- e||-----------------|-----------------------| B||-----------------|-----------------------| G||-11--11--11--11--|------------11--11--x--| D||-----------------|-----------------------| A||--9---9---9---9--|-------------9---9--x--| D||-----------------|-----------------------| (D bass) (C# bass) (A bass) (E bass) e|---------------------------|----------------------------------|------------ B|--tr~~~~~~~~~~~~-----------|----------------------------------|------------ G|--(12 13)12-------x--x--x--|--12--12--12--12--10--10--10--10--|--9--9--9-- D|---------------------------|----------------------------------|------------ A|------------------x--x--x--|--10--10--10--10---8---8---8---8--|--7--7--7-- D|---------------------------|----------------------------------|------------ e||--------------|------------------------------| B||--------------|------------------------------| G||9--9--9--9--9-|--10--10--10--10--9--9--9--9--| D||--------------|------------------------------| A||7--7--7--7--7-|---8---8---8---8--7--7--7--7--| D||--------------|------------------------------| (A bass) e|--------------------------|--------------------------|------------------|-- B|--------------------------|--------------------------|------------------|-- G|--7--7--7--7--7--7--7--7--|--7--7--7--7--7--7--7--7--|--6---------------|-- D|--------------------------|--------------------------|------------------|-- A|--5--5--5--5--5--5--5--5--|--5--5--5--5--5--5--5--5--|--4------------x--|-- D|--------------------------|--------------------------|------------------|-- e||------------------------|| B||------------------------|| G||------------------------|| D|| -----------------------|| A|| x--x--x--x--x--x--x--x-|| D||------------------------|| N.C. e||--------------------------|--------------------------|-------------------- B||o-------------------------|--------------------------|-------------------- G||--------------------------|--------------------------|-------------------- D||--------------------------|--------------------------|-------------------- A||o-5--4--3--0--------------|--------------------3--4--|--5--4--3--0-------- D||--------------6--5--3--0--|--3--0--5--6--7--0--------|--------------6--5-- e||------|--------------------------|| B||------|-------------------------o|| G||------|--------------------------|| D||------|--------------------------|| A||------|--------------------3--4-o|| D||3--0--|--3--0--5--6--7--0--------|| e|--------------------------|--------------------------|--------------------- B|--------------------------|--------------------------|--------------------- G|--------------------------|--------------------------|--------------------- D|--------------------------|--------------------------|--------------------- A|--5--4--3--0--------------|--5--4--3--0--------------|--5--4--3--0--------- D|--------------6--5--3--0--|--------------6--5--3--0--|--------------6--5-- e||-----|--------------------|| B||-----|--------------------|| G||-----|--------------------|| D||-----|--------------------|| A||-----|--5--4--3/9--(9)\\5--|| D||3--0-|--------------------|| [1.------------------------] e||--------------------------|--------------------------|-------------------- B||o-------------------------|--------------------------|-------------------- G||--------------------------|--------------------------|-------------------- D||--------------------------|--------------------------|-------------------- A||o-5--4--3--0--------------|--5--4--3--0--------------|--5--4--3--0-------- D||--------------6--5--3--0--|--------------6--5--3--0--|--------------6--5-- e||------|-------------------------|| B||------|------------------------o|| G||------|-------------------------|| D||------|-------------------------|| A||------|--5--4--3--0------------o|| D||3--0--|-------------6--5--3--0--|| [2.--------------------------- (Dsus4) e||-----------------------0--|------0------0---------|--0------------------|| B||-----------------------0--|------0------0---------|--0------------------|| G||-----------------------0--|------0------0---------|--0------------------|| D||-----------------------0--|------0------0---------|--0------------------|| A||--5--4--3--0-----------0--|------0------0---------|--0------------------|| D||--------------6--5--3--0--|------0------0---------|--0------------------||








О сайтеАккордыХит-парадПоискУроки ФорумыИщу песню
ПрограммыСвежачок-сПодпискаСтатьи
Яндекс.Метрика