Басовая табулатура Red Hot Chili Peppers | The Righteous And The Wicked гитара табулатуры уроки тексты песен Red Hot Chili Peppers текст lyrics песня аккорды песни ноты нота электрогитара струна  
   А Б В Г Д Е Ж З И К Л М Н О П Р С Т У Ф Х Ч Ш Ы Э Ю Я       Разные песни
1-9 A B C D E F G H I J K L M N O P Q R S T U V W Y Z      Все исполнители in english

    



группа Red Hot Chili Peppers, Басовая табулатура песни The Righteous And The Wicked

Продолжаем грести бабос на ботах в Telegram.
Только в этот раз есть вариант автоматизировать это дело, привлекая рефералов. Вы можете заработать если »

Группа: Red Hot Chili Peppers - другие аккорды (395),   о группе (3 статей),   диски (15),   фотографии (113)
Басовая табулатура песни: The Righteous And The Wicked
Просмотров: 2244
Прислал: Back Door Man (backman@mail.ru)




    
Tabbed by Martin Peters

Timechange to ex. 5/4: 
G-|---|
D-|-5-|
A-|-4-|
E-|---|
B-|---|

5-string bass 
Moderately funk 

Intro:
G-|--------|--------------------------|-------------------------|--------------------|
D-|--------|--------------------------|-------------------------|--------------------|
A-|----5-5-|-5------------------5-5-5-|-5-------------7-----5-5-|-5------------------|
E-|--------|----7--5--7---------------|----7--5--7--------------|----7--5--7---------|
B-|--------|------------0-0--0--------|------------5------------|-------------0-0--0-|

G-|----------|
D-|----------|
A-|------5-5-|
E-|----------|
B-|----------|
Repeat last four bars 2 times

Bass figure 1:
G-|--------|--------------------------|-------------------------|
D-|--------|--------------------------|-------------------------|
A-|----5-5-|-5------------------5-5-5-|-5-------------7-----5-5-|
E-|--------|----7--5--7---------------|----7--5--7--------------|
B-|--------|------------0-0--0--------|------------5------------|

G-|--------------------------|-------------------------------|
D-|--------------------------|-------------------------------|
A-|-5------------------5-5-5-|-5-------------7/8-7-5---------|
E-|----7--5--7---------------|----7--5--7------------7-5-----|
B-|------------0-0--0--------|------------5--------------7-5-|

G-|--------------------------|-------------------------|
D-|--------------------------|-------------------------|
A-|-5------------------5-5-5-|-5-------------7-----5-5-|
E-|----7--5--7---------------|----7--5--7--------------|
B-|------------0-0--0--------|------------5------------|

G-|--------------------------|----------------------|
D-|--------------------------|----------------------|
A-|-5------------------5-5-5-|-5-------------7---5--|
E-|----7--5--7---------------|----7--5--7-----------|
B-|------------0-0--0--------|------------5---------|

Variation in bar four, 2nd verse:
G-|-----------------------------|
D-|-----------------------------|
A-|-5-------------------6-7-7---|
E-|----7--5--7-0--2-5-7-------5-|
B-|-----------------------------|

Bass figure 2:
G-|-------------------------|-----------------------|-----------------------|
D-|-------------------------|-----------------------|-----------------------|
A-|----------------------5--|--------------------5--|--------------------5--|
E-|-7---x-x-----7---x-x-----|-7--x-5--7--8-8--8-----|-7---x-x-----7--x-x----|
B-|---------3/--------------|-----------------------|---------3/------------|

G-|-----------------------|-----------------------|-----------------------|
D-|-----------------------|-----------------------|-----------------------|
A-|--------------------5--|--------------------5--|--------------------5--|
E-|-7--x-5--7--8--8--8----|-7---x-x-----7--x-x----|-7---x-5--7--8-8--8----|
B-|-----------------------|---------3/------------|-----------------------|

Продолжаем грести бабос на ботах в Telegram.
Только в этот раз есть вариант автоматизировать это дело, привлекая рефералов. Вы можете заработать если »

G-|------------------------|----------------------| D-|------------------------|----------------------| A-|---------------------5--|----------------------| E-|-7---x-x-----7--x-x-----|-7---7-5--7--8--8--8--| B-|---------3--------------|----------------------| Verse interlude: G-|-------------------|-----------------|--------------------|---------------------| D-|-------------------|-----------------|--------------------|---------------------| A-|-------------------|-----------------|--------------------|---------------------| E-|-7---7-5-4---4-2-1-|---0--1--2-2--2--|-7---7--5--4---4--2-|-1--1-0--1--2--2--2--| B-|-------------------|-----------------|--------------------|---------------------| Repeat 2 times Last bar 2nd time: G-|--------------------------| D-|--------------------------| A-|----------------------5-5-| E-|-1----0--1--2--2--2h6-----| B-|--------------------------| Interlude: G-|---|--------------------------------------| D-|-5-|--------------------------------------| A-|-4-|-5-6-5-----5-6-5-----5h6p5------------| E-|---|-------7---------7--------7-5-------5-| B-|---|------------------------------7-6-7---| Repeat 4 times G-|---|-------------------------------------| D-|-5-|-------------------------------------| A-|-4-|-7-8-7-----7-8-7-----7h8p7-----------| E-|---|-------9---------9---------9-------7-| B-|---|-----------------------------9-8-9---| Repeat 2 times G-|---|--------------------------------------| D-|-5-|--------------------------------------| A-|-4-|-5-6-5-----5-6-5-----5h6p5------------| E-|---|-------7---------7--------7-5-------5-| B-|---|------------------------------7-6-7---| G-|---|-------------------------------------|---|-------| D-|-5-|-------------------------------------|-4-|-------| A-|-4-|-5-6-5-----5-6-5-----5h6p5-----------|-4-|-------| E-|---|-------7---------7--------7-5--------|---|-2-----| B-|---|------------------------------7-6-7--|---|-------| G-|---------------------------------------| D-|---------------------------------------| A-|-----------------------------------5-5-| E-|-2/3/4/5/6/7/9/10/12/13/14/17/20\------| B-|---------------------------------------| Ending: G-|---|------------|---|-------------------------|-------------------------| D-|-2-|------------|-4-|-------------------------|-------------------------| A-|-4-|------------|-4-|-------------------------|-------------------------| E-|---|-7--7-5--7--|---|-8--8--8--8--8--8--8--8--|-8--8--8--8--8--8--8--8--| B-|---|------------|---|-------------------------|-------------------------| G-|--------------| D-|--------------| A-|--------------| E-|----7---------| B-|---------0----|

искать в аптеке
список лекарств






О сайтеАккордыХит-парадПоискУроки ФорумыИщу песню
ПрограммыСвежачок-сПодпискаСтатьи
Яндекс.Метрика