Басовая табулатура Red Hot Chili Peppers | Power Of Equality (2) гитара табулатуры уроки тексты песен Red Hot Chili Peppers текст lyrics песня аккорды песни ноты нота электрогитара струна  
   А Б В Г Д Е Ж З И К Л М Н О П Р С Т У Ф Х Ч Ш Ы Э Ю Я       Разные песни
1-9 A B C D E F G H I J K L M N O P Q R S T U V W Y Z      Все исполнители in english

    



группа Red Hot Chili Peppers, Басовая табулатура песни Power Of Equality (2)

Группа: Red Hot Chili Peppers - другие аккорды (395),   о группе (3 статей),   диски (15),   фотографии (113)
Басовая табулатура песни: Power Of Equality (2)
Просмотров: 2139
Прислал: Back Door Man (backman@mail.ru)




    
This is a correction of the other bass tab
Now being tabbed by Flea1246

Tune down 1/2 step

Verse

      T T T T T  T T T T  T      T  T  T T  T T  T  T  T
Gb|------------------0-------||----------------------------|
Db|-------2---1--2-----4--3--||-------2---0--2----1--3--0--|
Ab|---0/2--------------------||---0/2----------------------|
Eb|---------0------0---------||---------0------0-----------|

      T  T T  T  T  T  T  T  T  T    All of that x3
  |--------------------0----------|
  |--------2-----0--2-----4--3----|
  |---0/2-------------------------|
  |-----------0-----------------0-|

Chorus

     T T   T  T   T   T   T  T     T T T T T  PT P T P T
  |----------------------------||-------------7--7--10---|
  |----------------------------||------------------------|
  |--6-6---6--6---6---6---6--6-||--4/5-5-5-5---5--/8---8-|
  |----------------------------||------------------------|

Continued
     T T  T     T P P T  T  T  T
  |---------||----x-x------------|
  |---------||-------------------|
  |---------||--------3--3--4--4-|
  |--0-5--4-||--3----------------|

      T T T T T PT P T PT T  T  T    T     P P T  T      X2
  |-------------7--7--10----------|--------x-x----------|

Продолжаем грести бабос на ботах в Telegram.
Только в этот раз есть вариант автоматизировать это дело, привлекая рефералов. Вы можете заработать если »

|-------------------------------|---------------------| |---4/5-5-5-5--5--/8--8---------|------------3--4-----| |-----------------------0--5--4-|--3------------------| Then the bit above (just the first bit) Followed By T T |-------------------| |-------------------| |-------------------| |--3---------3/15\--| Interlude (The hard bit) T T P P TP P T P P T T T P P T P P T P P T |------8---x--6--x-1-8-----||------8--x---5--x-1-8-------| |-1--1-------4---------x---||--1-1------4----------x-----| |------------------------4-||-------------------------4--| |--------------------------||----------------------------| T T P P TP P T P |------8---x--5--x-1-8--| |-1--1-------4----------| |-----------------------| |-----------------------| P T T PT P T TP TP T T P X2 T TP TP T TP TP |-------9--9------9--9-------9--|--------9--9------9--9--| |------------7/9-------5/7-7----|------------------------| |-5/7-7--7-------7--7-----------|---5/7-7--x--5/7-7--7---| |------------0------------------|------------------------|








О сайтеАккордыХит-парадПоискУроки ФорумыИщу песню
ПрограммыСвежачок-сПодпискаСтатьи
Яндекс.Метрика