Табулатура Red Hot Chili Peppers | I Could Die For You гитара табулатуры уроки тексты песен Red Hot Chili Peppers текст lyrics песня аккорды песни ноты нота электрогитара струна  
   А Б В Г Д Е Ж З И К Л М Н О П Р С Т У Ф Х Ч Ш Ы Э Ю Я       Разные песни
1-9 A B C D E F G H I J K L M N O P Q R S T U V W Y Z      Все исполнители in english

    



группа Red Hot Chili Peppers, Табулатура песни I Could Die For You

Продолжаем грести бабос на ботах в Telegram.
Только в этот раз есть вариант автоматизировать это дело, привлекая рефералов. Вы можете заработать если »

Группа: Red Hot Chili Peppers - другие аккорды (395),   о группе (3 статей),   диски (15),   фотографии (113)
Табулатура песни: I Could Die For You
Просмотров: 2387
Прислал: Back Door Man (backman@mail.ru)




    
Intro:
e|------------4--------------- 
B|---------------------------- 
G|----6---6-----6--6--6------- 
D|----7---7-----7--7--7------- 
A|----7---7-----7--7--7-------
E|----5---5-----5--5--4--2---- 


Verse:

 Something...    ...The cards...
 Dont want...    ...Somebody else...
e|---2---------------7---------- 
B|---2---------------5---------- 
G|---2---------------6---------- 
D|---4---------------6----------
A|---4-------------------------- 
E|---2--------------------------


  This is...     ...and this...
  She smiles...  ...Do my time...   
e|--------------------12-------- 
B|---14---------------12--------
G|---14---------------11-------- 
D|---14---------------12--------
A|---12------------------------- 
E|------------------------------

Chorus:
  ...I could die for you 
e|---5----------------2----2---- 
B|---5--------9-------3----2----
G|---6--------9-------4----2---- 
D|---7--------9-------4----4----
A|---7--------7-------2----4---- 
E|---5---------------------2----

  ...Oh this life I...Choose
e|---5------------------7-7--7-7--7--------- 
B|---5--------9---------7-10-7-10-7---------
G|---6--------9---------7-7--7-7--7---7h9p7- Then back to intro!
D|---7--------9---------9-9--9-9--9---------
A|---7--------7-----------------------------
E|---5--------------------------------------
                     or:
                        --9--7--5--2--                       
                        --9--7--5--2-- 
                        --------------
                        --------------
                        --------------
                        --------------

Bridge 1:

   You can see... ..Only...
e|----14-------------------16-- 
B|----14-------------14----14-- 
G|----13-------------14----14-- 
D|----14-------------14----14--
A|-------------------12----12-- 
E|----------------------------- 

Продолжаем грести бабос на ботах в Telegram.
Только в этот раз есть вариант автоматизировать это дело, привлекая рефералов. Вы можете заработать если »

Come along and go... ...Along with me... e|----9--12--9--12--9-----------5------ B|----9--9---9--9---9-----------5------ G|----9--9---9--9---9-----------6------ D|----11-11--11-11--11--------- 7------ A|------------------------------7------ E|------------------------------5------ twice then back to chorus: Bridge 2: Come on then... e|----7--x--7------9--x--9----- B|----6--x--6------9--x--9----- G|----7--x--7------9--x--9----- D|----------------------------- A|----------------------------- E|----------------------------- *************************************************************************** MIDNIGHT Capo 2nd Fret. Tablature irrelavent to capo. Timing is partially shown in tab. There are actually two guitars in this song, so this may sound a little dry. Have Fun! ---------------2-2-2-2-----------|-------------------------------------------- --2-2-2-2-2-2--2-3-2-3-2h3p2-----|-------------------------------------------- --2-2-2-2-2-2--4-4-4-4-------4p0-|-------------------------------------------- --4-2-4-2-4-2--4-4-4-4-----------|-4h6-7-4------------------------------------ --4-4-4-4-4-4--2-2-2-2-----------|-------------------------------------------- --2-2-2-2-2-2--------------------|-------------------------------------------- Verse pt. 1 Fill 1 Fill 2 --2-2-5p2--5-5-5-------------------------------------------------------------- --3-2-3----7-7-7-------------------------------------------------------------- --4-4-4----7-7-7-------------------------------------------------------------- --4-4-4----7-7-7-------------------------------------------------------------- --2-2-2----5-5-5-------------------------------------------------------------- ------------------------------------------------------------------------------ Verse prt. 2 ---5--2--3--5----5--2--3------------------------------------------------------ ---5--4--5--5----5--4--5------------------------------------------------------ ---6--4--5--6----6--4--5------------------------------------------------------ ---7--4--5--7----7--4--5------------------------------------------------------ ---7--2--3--7----7--2--3------------------------------------------------------ ---5--------5----5------------------------------------------------------------ Pre-Chorus --3---3---5---5--17-17-17-17-17-|--------------------------------------------- --5---3---7---5--17-17-17-17-17-|-7------------------------------------------- --5---4---7---6-----------------|-7------------------------------------------- --5---5---7---7-----------------|-7------------------------------------------- --3---5---5---7-----------------|-5------------------------------------------- ------3-------5-----------------|--------------------------------------------- Chorus Chorus ends on D strummed multiple times

искать в аптеке
список лекарств






О сайтеАккордыХит-парадПоискУроки ФорумыИщу песню
ПрограммыСвежачок-сПодпискаСтатьи
Яндекс.Метрика