Табулатура Red Hot Chili Peppers | Don`t Forget Me гитара табулатуры уроки тексты песен Red Hot Chili Peppers текст lyrics песня аккорды песни ноты нота электрогитара струна  
   А Б В Г Д Е Ж З И К Л М Н О П Р С Т У Ф Х Ч Ш Ы Э Ю Я       Разные песни
1-9 A B C D E F G H I J K L M N O P Q R S T U V W Y Z      Все исполнители in english

    



группа Red Hot Chili Peppers, Табулатура песни Don`t Forget Me

Группа: Red Hot Chili Peppers - другие аккорды (395),   о группе (3 статей),   диски (15),   фотографии (113)
Табулатура песни: Don`t Forget Me
Просмотров: 7358
Прислал: Back Door Man (backman@mail.ru)




    
MAIN RIFF : whole way through i think 
    A          F          C          G 
e|-------------------------------------------------- 
b|-------------------------------------------------- 
g|------------------------5-x-x-x-x----------------- 
d|--7-x-x-x-x--3-x-x-x-x--5-x-x-x-x--5-x-x-x-x------ 
a|--7-x-x-x-x--3-x-x-x-x--3-x-x-x-x--5-x-x-x-x------ 
E|--5-x-x-x-x--1-x-x-x-x-------------3-x-x-x-x----- 

THIS COMES IN : semi palm mute 
e|-------------------------------------------------- 
b|-------------------------------------------------- 
g|--9-9-9-9-9-9-9-9-9-9--- etc --------------------- 
d|-------------------------------------------------- 
a|-------------------------------------------------- 
E|-------------------------------------------------- 

THEN THIS : Try and strum it like john does really fast 
          . delay possibly here i think    X2 
e|-------------------------------------------etc---- 
b|--10-h-13-10-10-h-13--10-10-h-13------------------ 
g|--9-------9--9--------9---9---------------------- 
d|-------------------------------------------------- 
a|-------------------------------------------------- 
E|-------------------------------------------------- 

e|--8-p-5----8-p-5----8-p-5----8-p-5--------------- 
b|--------5---------5--------5---------5-----etc--- 
g|-------------------------------------------------- 
d|-------------------------------------------------- 
a|-------------------------------------------------- 
E|-------------------------------------------------- 

CHORUS : 
e|-------------------------------------------------- 
b|-------------------------------------------------- 
g|---------------5-5-------------------------------- 
d|--7-7---3-3----5-5------5--5---------------------- 
a|--7-7---3-3----3-3------5--5---------------------- 
E|--5-5---1-1-------------3--3---------------------- 

FILL OVER CHORUS : 

Продолжаем грести бабос на ботах в Telegram.
Только в этот раз есть вариант автоматизировать это дело, привлекая рефералов. Вы можете заработать если »

e|--17--17--17--17--17--17-17--17----ETC------------ b|-------------------------------------------------- g|-------------------------------------------------- d|-------------------------------------------------- a|-------------------------------------------------- E|-------------------------------------------------- WIERD SOLO BIT : w/ some delay effect e|--12-12-12---3-3-3-3-3------5-5-5-5-5-5----------- b|-------------------------------------------------- g|-------------------------------------------------- d|-------------------------------------------------- a|-------------------------------------------------- E|-------------------------------------------------- e|--12-12-12---15-15---12-12-12----3-3-3-3---5-5-5-5- b|-------------------------------------------------- g|-------------------------------------------------- d|-------------------------------------------------- a|-------------------------------------------------- E|-------------------------------------------------- e|--5b-3------5---3--------------------------------- b|---------5---------5------------------------------ g|-------------------------------------------------- d|-------------------------------------------------- a|-------------------------------------------------- E|-------------------------------------------------- OUTRO : e|-----5--3-----5---3------------------------------- b|--5--------5---------5--5------------------------- g|-------------------------------------------------- d|-------------------------------------------------- a|-------------------------------------------------- E|-------------------------------------------------- Back into verse chords Thats it








О сайтеАккордыХит-парадПоискУроки ФорумыИщу песню
ПрограммыСвежачок-сПодпискаСтатьи
Яндекс.Метрика