Табулатура Red Hot Chili Peppers | Dosed гитара табулатуры уроки тексты песен Red Hot Chili Peppers текст lyrics песня аккорды песни ноты нота электрогитара струна  
   А Б В Г Д Е Ж З И К Л М Н О П Р С Т У Ф Х Ч Ш Ы Э Ю Я       Разные песни
1-9 A B C D E F G H I J K L M N O P Q R S T U V W Y Z      Все исполнители in english

    



группа Red Hot Chili Peppers, Табулатура песни Dosed

Продолжаем грести бабос на ботах в Telegram.
Только в этот раз есть вариант автоматизировать это дело, привлекая рефералов. Вы можете заработать если »

Группа: Red Hot Chili Peppers - другие аккорды (395),   о группе (3 статей),   диски (15),   фотографии (113)
Табулатура песни: Dosed
Просмотров: 3235
Прислал: Back Door Man (backman@mail.ru)




    
Guitar 1 repeats the tab below throughout all verses, Guitar 2 plays the 
fills which are tabbed according
to the vocal line they follow.


GUITAR 1:  clean electric with chorus and reverb effects

e--12----------12-----------12---------12--
B-----------12-----------12---------12-----
G-------12----------12----------12---------
D------------------------------------------
A------------------------------------------
E------------------------------------------

------10--------10--------7------7--
----12--------12--------8-------8---
-12-------12---------9-------9------
------------------------------------
------------------------------------
------------------------------------


GUITAR 2:  electric with reverb and slight natural overdrive.

Intro: No vocals
e-----------------------------------------------
B-----------------------------------------------
G--4---4---7---4---4--------4---4---7---4---4---
D-----------------------------------------------
A-----------------------------------------------
E-----------------------------------------------

-----------------------------------------------------
-----------------------------------------------------
-------4---4---7---4---4---------4--4---7---9--4-----
-----------------------------------------------------
-----------------------------------------------------
-----------------------------------------------------


verse 1:  " I  got dosed by you, closer 
to do?"
e-------------------------------------
B-15----------------------15----------
G-------11---12---------------11---12-
D-------------------------------------
A-------------------------------------
E-------------------------------------

than most to you, what am i supposed 
-------------------------
-------------15----------
---------------11---12---
-------------------------
-------------------------
-------------------------


"Take it away I never had it anyway, 
e-------19--17--15--14--15-----------
B------------------------------------
G------------------------------------
D------------------------------------
A------------------------------------
E------------------------------------

Take it away and everything will be ok"
----------------------15--14--12--10--12---
-------------------------------------------
-------------------------------------------
-------------------------------------------
-------------------------------------------
-------------------------------------------


verse 2: "In you a star is born, you cut a perfect form,
warm"
e--------------------------------------------------------
B--------------------------------------------------------
G--4---4---7---4---4--------4---4---7---4---4------------
D--------------------------------------------------------
A--------------------------------------------------------
E--------------------------------------------------------

 someone forever 
------------------------------------------------
----15------------------15------------------15--
--11---12-----------11---12-----------11---12---
------------------------------------------------
------------------------------------------------
------------------------------------------------

  prechorus:  " Lay on lay on lay on lay on"  
e-------19--17--15--14--15-------------------
B--------------------------------------------
G--------------------------------------------
D--------------------------------------------
A--------------------------------------------
E--------------------------------------------

"Lay on lay on lay on lay on"
--------------15--14--12--10--12------
--------------------------------------
--------------------------------------
--------------------------------------
--------------------------------------
--------------------------------------

==========================================================

Chorus

guitat one plays the following chords throughout the chorus:

      G               D                  Em            C
e---3------------5--------------7------------8-----------
B---3------------7--------------8------------8-----------
G---4------------7--------------9------------9-----------X2
D---5------------7--------------9------------10----------
A---5------------ 5-------------7------------10----------
E---3------------ 5-------------7------------8-----------



GUITAR 2:

"Way upon the mountain where she died"
e-----7---8--10-------------------------
B-----8---------------------------------
G----------------------11---12--14------
D----------------------12---------------

Продолжаем грести бабос на ботах в Telegram.
Только в этот раз есть вариант автоматизировать это дело, привлекая рефералов. Вы можете заработать если »

A--------------------------------------- E--------------------------------------- --12----12----12-------12--------15--14--12--10- ------------------------------12---------------- ------------------------------------------------ ------------------------------------------------ ------------------------------------------------ ------------------------------------------------ "All I ever wanted was your life" e----7---8--7------------------------------------ B----8-------------------------12----13------12-- G----------------------11-----12----12------12--- D----------------------12------------------------ A------------------------------------------------ E------------------------------------------------ ------------------------------------------- --12--12-12-12--13--12-12------12---------- -12--12-12-12--12--12-12-12--12------------ ----------------------------------------14- ------------------------------------------- ------------------------------------------- "Deep inside the canyon i can't hide" e-----7---8--10---------------------------12-- B-----8--------------------------------------- G----------------------11---12--14------------ D----------------------12--------------------- A--------------------------------------------- E--------------------------------------------- --12----12-------12--------15--14--12--10-- ------------------------12----------------- ------------------------------------------- ------------------------------------------- ------------------------------------------- ------------------------------------------- "All I ever wanted was your life" e----7---8--7----------------------------- B----8-------------------------12----13--- G----------------------11-----12----12---- D----------------------12----------------- A----------------------------------------- E----------------------------------------- ---------------------------------------- ---12----12--12-12-12--13--13-13-15--15- --12----12--12-12-12--12--12-12-12--12-- ---------------------------------------- ---------------------------------------- ---------------------------------------- Verse three is the same as the previous verses. The chorus following verse three following the following patter on chords: G D Em C e---3------------5--------------7------------8---------- B---3------------7--------------8------------8---------- G---4------------7--------------9------------9---------- X1 D---5------------7--------------9------------10--------- A---5------------ 5-------------7------------10--------- E---3------------ 5-------------7------------8---------- and then: G D Em Em G G e---3------------5--------------7------------7----------10-------10--- B---3------------7--------------8------------8----------12-------12--- G---4------------7--------------9------------9----------12-------12--- X1 D---5------------7--------------9------------9----------12-------12--- A---5------------ 5-------------7------------7----------10-------10--- E---3------------ 5-------------7------------7----------10-------10--- where a chord is noted twice it indicates it is to be played for 2 bars. Outro: the outro features the standard verse pattern for guitar one while guitar 2 plays the following: e---12--------12--------12--------12-------12------------------------------- B--------15--------15--------15-------15-------15------12----12---12-12-12-- G--------------------------------------------------------------------------- X2 D--------------------------------------------------------------------------- A--------------------------------------------------------------------------- E--------------------------------------------------------------------------- e-------------------------------------------------------------- B---12--13-13-13--13-13--12------------------------------------ G-------------------------------------12--12--12--11--12--12--- D-------------------------------------------------------------- A-------------------------------------------------------------- E-------------------------------------------------------------- --------------------------------------------------------------- --12--13--12--13--12--13--12----------------------------------- ----12--12--12--12--12--12--12--12--12--12--------------------- ----------------------------------------------------14--14--14- --------------------------------------------------------------- --------------------------------------------------------------- e---12--------12--------12--------12-------12------------------------------ B--------15--------15--------15-------15-------15------12----12---12-12-12- G-------------------------------------------------------------------------- X2 D-------------------------------------------------------------------------- A-------------------------------------------------------------------------- E-------------------------------------------------------------------------- e----------------------------------------------------------------------- B-15----15----15----15--15--15--------12(b)13--13--13--13--13--13(r)12-- G----------------------------------------------------------------------- D----------------------------------------------------------------------- A----------------------------------------------------------------------- E----------------------------------------------------------------------- ---------------------------------- ---12------12-----13---12---15---- ---------------------------------- ---------------------------------- ---------------------------------- ----------------------------------

найти лекарство
список лекарств






О сайтеАккордыХит-парадПоискУроки ФорумыИщу песню
ПрограммыСвежачок-сПодпискаСтатьи
Яндекс.Метрика