Табулатура Red Hot Chili Peppers | Universally Speaking гитара табулатуры уроки тексты песен Red Hot Chili Peppers текст lyrics песня аккорды песни ноты нота электрогитара струна  
   А Б В Г Д Е Ж З И К Л М Н О П Р С Т У Ф Х Ч Ш Ы Э Ю Я       Разные песни
1-9 A B C D E F G H I J K L M N O P Q R S T U V W Y Z      Все исполнители in english

    



группа Red Hot Chili Peppers, Табулатура песни Universally Speaking

Продолжаем грести бабос на ботах в Telegram.
Только в этот раз есть вариант автоматизировать это дело, привлекая рефералов. Вы можете заработать если »

Группа: Red Hot Chili Peppers - другие аккорды (395),   о группе (3 статей),   диски (15),   фотографии (113)
Табулатура песни: Universally Speaking
Просмотров: 2004
Прислал: Back Door Man (backman@mail.ru)




    
Main riff
E -------------------------]-----------------------------]
B -------------------------]-----------------------------]
G -7-7-7-7---7-7-7-7-------]----7-7-7-7---7-7-7-7--------]
D -7-7-7-7---7-7-7-7-------]----7-7-7-7---7-7-7-7--------]
A -5-5-5-5---5-5-5-5-------]----7-7-7-7---7-7-7-7--------]
E -------------------------]-----------------------------]

Chorus
Chords are A-C#m-G

Solo
E---------------------------------------------------------------------------
B---------------------------------------------------------------------------
G--11-----------------------------------------------------------------------
D ------14--12--14--12--11--12--11--12--14--12--11--12--14------------------
A------------------------------------------------------------------------12-
E---------------------------------------------------------------------------

E---------------------------------------------------------------------------
B---------------------------------------------------------------------------

Продолжаем грести бабос на ботах в Telegram.
Только в этот раз есть вариант автоматизировать это дело, привлекая рефералов. Вы можете заработать если »

G--11-------------------------------------------------------------------14-- D ------14--12--14--12--11--12--11--12--14--12--11--12--14------------------ A--------------------------------------------------------------------------- E--------------------------------------------------------------------------- E--------------------------------------------------------------------------- B--------------------------------------------------------------------------- G--11----------------------------------------------------------------------- D ------14--12--14--12--11--12--11--12--14--12--11--12--14------------------ A------------------------------------------------------------------------12- E--------------------------------------------------------------------------- E---------------------------------------------------------------------- B---------------------------------------------------------------------- G---------------------------------------------------------------------- D --7--5--4--5--4-------------7--12------------------------------------ A--------------------5--5--5------------------------------------------- E----------------------------------------------------------------------

поиск лекарств
список лекарств






О сайтеАккордыХит-парадПоискУроки ФорумыИщу песню
ПрограммыСвежачок-сПодпискаСтатьи
Яндекс.Метрика