Табулатура Ария | Беспечный ангел (2) гитара табулатуры уроки тексты песен Ария текст lyrics песня аккорды песни ноты нота электрогитара струна  
   А Б В Г Д Е Ж З И К Л М Н О П Р С Т У Ф Х Ч Ш Ы Э Ю Я       Разные песни
1-9 A B C D E F G H I J K L M N O P Q R S T U V W Y Z      Все исполнители in english

    



группа Ария, Табулатура песни Беспечный ангел (2)

Продолжаем грести бабос на ботах в Telegram.
Только в этот раз есть вариант автоматизировать это дело, привлекая рефералов. Вы можете заработать если »

Группа: Ария - другие аккорды (629),   о группе (7 статей),   диски (18),   фотографии (92)
Табулатура песни: Беспечный ангел (2)
Просмотров: 16468
Подобрал: ADMIN (Pechkins@mtu-net.ru)




    

Проигрыш:                        Em                C                  G

              6|-3-5---------|--0-------0--|---------------|--3---------3------|

              5|------2---5--|---2-----2---|---3-----------|-------------------|

              4|-------------|----2---2----|----0----------|----0---------0----|

              3|-------------|-----0-0-----|-----2--2------|-----0--0------0---|

              2|-------------|------0------|------1--1-----|-------2--2------2-|

              1|-------------|-------------|---------------|-------------------|





                                 Em              C                     G

              6|-3-5--------|---0-------0-|-------------|--3-----------3---|

              5|------2---5-|---2-----2---|---3---------|------------------|

              4|------------|----2---2----|----0--------|----0--------0----|

              3|------------|-----0-0-----|-----2--2----|-----0-----0------|

              2|------------|------0------|------1--1---|-------2--2-------|

              1|------------|-------------|-------------|--------2---------|



                     Em                C                  G

6|-3-5---------|--0-------0--|--------------|--3---------3------|

5|------2---5--|---2-----2---|---3----------|-------------------|

4|-------------|----2---2----|----0---------|----0---------0----|

3|-------------|-----0-0-----|-----2--2-----|-----0--0------0---|

2|-------------|------0------|------1--1----|-------2--2------2-|

1|-------------|-------------|--------------|-------------------|

Этот парень был из тех, кто просто любит жизнь

                   Em                C                  D

6|-3-5--------|--0-------0--|-------------|-------------------|

5|------2---5-|---2-----2---|---3---------|-------------------|

4|------------|----2---2----|----0--------|--0--------------0-|

3|------------|-----0-0-----|-----2--2----|---2-----------2---|

2|------------|------0------|------1--1---|-----3--------3----|

1|------------|-------------|-------------|------2--3--2------|



Любит праздники и смех, пыль дорог и ветра свист

                     Am                 G           

6|-3-5--------|--------------|--3----------3-------|

5|------2---5-|--0--------0--|---------------------|

4|-------------|-------------|----0----------0-----|

3|-------------|-----2---2---|------0---0-----0----|

2|-------------|------2-2----|--------2---2-----2--|

1|-------------|-------1-----|---------------------|

Он был везде и всегда своим

              D                    Am

6|-------------------------|----------------|

5|-------------------------|--0--------0----|

4|--0------------------0---|----------------|

3|----2--------------2-----|----2----2------|

2|------3----------3-------|-----2--2-------|

1|--------2--3--2----------|------1---------|

   Влюблял в себя целый свет

Продолжаем грести бабос на ботах в Telegram.
Только в этот раз есть вариант автоматизировать это дело, привлекая рефералов. Вы можете заработать если »

D Em 6|-------------------------|--0-------0--| 5|-------------------------|---2-----2---| 4|--0------------------0---|----2---2----| 3|----2--------------2-----|-----0-0-----| 2|------3----------3-------|------0------| 1|--------2--3--2----------|-------------| И гнал свой байк, а не лимузин C D 6|-------------|------------------| 5|--3----------|------------------| 4|---0---------|--0-------------0-| 3|----2--2-----|---2-----------2--| 2|------1--1---|-----3--------3---| 1|-------------|------2--3--2-----| Таких друзей больше нет И в гостиной при свечах он танцевал, как бог Но за то менялся на глазах, только вспомнит шум дорог Всё, что имел тут же тратил И за порог, сделав шаг Мой друг давал команду братьям Вверх поднимая кулак Em C D Ты - летящий в даль, вдаль ангел C B Em Ты – летящий в даль, вдаль ангел C D Ты один только друг, друг на все времена C D Не много таких среди нас Am C D Ты - летящий в даль беспечный ангел Под гитарный жёсткий рок, который так любил На Харлее он домчать нас мог до небес и до звёзд любых Но он исчез и никто не знал Куда теперь мчит его байк Один бродяга нам сказал Что он отправился в рай Ты - летящий в даль, вдаль ангел Ты – летящий в даль, вдаль ангел Но ад стал союзником рая в ту ночь Против тебя одного Ты - летящий в даль беспечный ангел

лекарство в аптеке
список лекарств






О сайтеАккордыХит-парадПоискУроки ФорумыИщу песню
ПрограммыСвежачок-сПодпискаСтатьи
Яндекс.Метрика