Табулатура Metallica | Master Of Puppets (3) гитара табулатуры уроки тексты песен Metallica текст lyrics песня аккорды песни ноты нота электрогитара струна  
   А Б В Г Д Е Ж З И К Л М Н О П Р С Т У Ф Х Ч Ш Ы Э Ю Я       Разные песни
1-9 A B C D E F G H I J K L M N O P Q R S T U V W Y Z      Все исполнители in english

    



группа Metallica, Табулатура песни Master Of Puppets (3)

Группа: Metallica - другие аккорды (225),   о группе (32 статей),   диски (11),   фотографии (49)
Табулатура песни: Master Of Puppets (3)
Просмотров: 2606
Подобрал: Nefr (ksd@hotmail.co.il)




    
4ast pesni podobrana mnoiu a vtaraya 4ast drugom!
 Play 4 times
 
e |-----------------|---------------|-----------------|
B |7---6---5--------|---------------|-----------------|
G |7---6---5--------|---------------|----------------.|
D |7---6---5--------|---------------|----------------.|
A |5---4---3--------|---------------|-----------------|
E |-----------------|0-0-7-0-0-5-0-0|3-0-2-1----------|    N.C.

                      
e |-----------------|----------------|----------------|-----------------|
B |-----------------|----------------|----------------|-----------------|
G |.----------------|----------------|----------------|----------------.|
D |.----------------|----------------|----------------|----------------.|
A |-----2-----3-----|4-----3-----2-2-|----2-----3-----|54---54---54--|
E |-0-1---0-1---0-1-|--0-1---0-1-----|0-1---0-1---1-0-|32-0-32-0-32--|

  RhyFig0
   N.C.                                                           B5

    
e |-----------------|----------------|----------------|----------------|
B |-----------------|----------------|----------------|----------------|
G |.----------------|----------------|----------------|------------4---|
D |.----------------|----------------|----------------|------------4---|
A |-----2-----3-----|4-----3-----2-2-|----2-----3-----|4-----3-----2---|
E |-0-1---0-1---0-1-|--0-1---0-1-----|0-1---0-1---0-1-|--0-1---1-0-----|    N.C.

                     
e |----------------|----------------|----------------|-----------------|
B |----------------|----------------|----------------|-----------------|
G |----------------|----------------|----------------|----------------.|
D |----------------|----------------|----------------|----------------.|
A |----2-----3-----|4-----3-----2-2-|----2-----3-----|54---54---54--|
E |0-1---0-1---0-1-|--0-1---0-1-----|0-1---0-1---1-0-|32-0-32-0-32--|   

             end
			 
             RhyFig0                                RhyFig1
                    E5                              N.C.(Em)                
                    w/ Fill 1                       
e |----------------|---------------|---------------|-----------------|
B |----------------|---------------|---------------|-----------------|
G |----------------|---------------|---------------|.----------------|
D |----------------|2--------------|---------------|.----------------|
A |54---54---54-|2--------------|---------------|-----------------|
E |32-0-32-0-32-|0--------------|---------------|-0-0-0-0-0-0-0-0-|                                    end RhyFig1

    
e |----------------|----------------|-----------|
B |----------------|----------------|-----------|
G |----------------|----------------|----------.|
D |----------------|----------------|----------.|
A |--5/7---87-5/7-|----------------|--5/7-5/7--|
E |0-3/5-0-65-3/5-|0-0-0-0-0-0-0-0-|0-3/5-3/5--|

/

e |----------------|----------------|----|
B |----------------|----------------|----|
G |----------------|----------------|----|
D |----8-----8-----|8-----8-----8===|====|
A |--7-----7-----7-|----7-----7-----|----|
E |0-----0-----0---|--0-----0-------|----|
 Repeat RhyFig1 4 times, then ->

   RhyFig1A
    N.C.(F#m)
e |-----------------|----------------|----------------|-----------|
B |-----------------|----------------|----------------|-----------|
G |.----------------|----------------|----------------|----------.|
D |.----------------|--4-4---54-4-4-|----------------|--4---4---.|
A |-----------------|--0-2---32-0-2-|----------------|--0h2-0h2--|
E |-2-2-2-2-2-2-2-2-|2---------------|2-2-2-2-2-2-2-2-|2----------|

e |----------------|
B |----------------|
G |4-4-4-4-4-4-4-4-|
D |4-4-4-4-4-4-4-4-|
A |2-2-2-2-2-2-2-2-|
E |----------------|
                                                                  
                                                                      Repeat
                                                                  3 times
e |-----------------|------------------|-----------------|-----------------|
B |-----------------|------------------|-----------------|-----------------|
G |.9-------7---9---|------------------|-----------------|--------8-------.|
D |.9-------7---9---|----9-------------|--------10---9---|--------8---9---.|
A |-7-------5---7---|7-9---10-9h10=====|--------10---9---|--------6---9----|
E |-0-0-0-0---------|------------------|8-8-8-8-8----7---|8-8-8-8-----7----|

   2 gtrs........ 
e |----------------|----------------|----------------|----------------|
B |----------------|----------------|----------------|----------------|
G |----------------|4---4-----------|2---2-----------|4---------------|
D |7-5-4---4-------|2---2-----------|3---3-----------|2---------------|
A |9-7-6---6-7-6---|2---2-----------|3---3-----------|2---------------|
E |----------8-7---|0---0-----------|1---1-----------|0---------0-0-0-|

e |--------|----------------|----------------|----------------|--------|
B |--------|0---------------|----------------|----------------|--------|
G |--------|0---------------|----------------|5---------------|--------|
D |--------|0---------------|----------------|5---------------|4-------|
A |--------|----------------|----------------|3---------0-0-0-|2-0-0-0-|
E |2p0-0-0-|3---------------|----------------|----------------|--------|

e |---------------|---------------|2---------------|--------|---------------|
B |---------------|---------------|3---------------|--------|4--------------|
G |2--------------|---------------|2---------------|--------|4--------------|
D |2--------------|---------------|0---------------|5-------|4--------------|
A |0--------------|---------------|----------------|3-------|2--------------|
E |---------------|---------------|----------3-3-3-|--3-3-3-|---------------|

e |----------------|--------|----------------|--------|----------------|
B |----------------|--------|5---------------|--------|----------------|
G |9---------------|7-------|5---------------|--------|4---4-----------|
D |9---------------|7-------|5---------------|--------|2---2-----------|
A |7---------------|5-------|3---------------|--------|2---2-----------|
E |0---------0-0-0-|----0-0-|----------------|--------|0---0-----------|

e |----------------|----------------|--------|----------------|
B |----------------|----------------|--------|5---------------|
G |2---2-----------|4---------------|--------|5---------------|
D |3---3-----------|2---------------|--------|5---------------|
A |3---3-----------|2---------------|--------|3---------------|
E |1---1-----------|0---------0-0-0-|2p0-0-0-|----------------|

e |----------------|----------------|----------------|
B |(5)-------------|----------------|----------------|
G |(5)-------------|4---4-----------|2---2-----------|
D |(5)-------------|2---2-----------|3---3-----------|
A |(3)-------------|2---2-----------|3---3-----------|
E |----------------|0---0-----------|1---1-----------|

1, play RhyFig0, then go back and play verse 2
2, pause for vocal (Master, Master...), then go to Coda 1
3, go to Coda 2

Coda 1:

  RhyFig2

e |----------------0h2------3--------------------------------------------------|
B |------------3----------3--------3---3------0------0-------0-----------------|
G |------0---2---2------2--------0---0---0---------2---2---2----2------2-------|
D |----2---0--------------------------------2------------------------1---------|
A |--2-------------------------3-----------------0--------2--------2-----------|
E |0----------------------------------------------------------------------1-0--|

      RhyFig2 w/RhyFig2    (0vol<<< = volume swell from vol off)

e |---------||--------|--------------|--------------|--------------|--------|
B |(0)--0---||--------|--------------|--------------|--------------|--------|
G |---2-----||--------|--------------|--------------|2------4------|8-------|
D |-1-------||2-------|4-------------|5-------------|--------------|--------|
A |---------||--------|--------------|--------------|--------------|--------|
E |-------3-||--------|--------------|--------------|--------------|--------|

  Rhyfig2a
   w/ RhyFig2 2 times   2gtrs
e |-----19/22--19--------|20---17-------------------20---17--------|
B |-20---------20---20---|22---19---19---19-19-19---22---19---19---|
G |-21--------------21---|----------19---19-19-19-------------19---|
D |----------------------|-----------------------------------------|
A |----------------------|-----------------------------------------|
E |----------------------|-----------------------------------------|

  Cadd9                                     Amsus2

e |19---15-------------------19---15--------|17---15h17p15-14--------|
B |20---17---17---17-17-17---20---17---17---|19---17h19p17-16---17---|
G |----------17---17-17-17-------------17---|-------------------17---|
D |-----------------------------------------|------------------------|
A |-----------------------------------------|------------------------|
E |-----------------------------------------|------------------------|

   B7                  B7/D#            RhyFig2a

e |----------14--------|14---16---17---19----|
B |16---17--------17---|16---17---19---20----|
G |16---17--/19---17---|---------------------|
D |--------------------|---------------------|
A |--------------------|---------------------|
E |--------------------|---------------------|
 RhyFig2a   w/ RhyFig2 2 times & Fill 1                                full full
 

e |----------------|15------15-17-15----19-15-12h15p12|----------------|
B |17---------17-19|------19---------19---------------|13-----15-------|
G |----------------|----------------------------------|----------------|
D |----------------|----------------------------------|----------------|
A |----------------|----------------------------------|----------------|
E |----------------|----------------------------------|----------------|

Узнай ВСЕ о своем друге в ВК или FB
all full bends of G string only e |15-14------15-14---------------------|-------------------|-------------| B |------12---------12h15p12------------|15-----------------|-------------| G |-------------------------------12-14-|14-------p12----12-|-------------| D |-------------------------------------|-------------14----|14--------12-| A |-------------------------------------|-------------------|-------------| E |-------------------------------------|-------------------|-------------| e |------------------------------------------|------------------------------| B |------------------------------------------|------------------------------| G |12----14-12---11--------14---12---11h12p11|------------------------------| D |-------------------12---------------------|10------------9-10--------9-10| A |------------------------------------------|-----------12-----------------| E |------------------------------------------|------------------------------| e |----------------------------------15---14--|11h12p11-----------/19--| B |------------------------12-----------------|---------12---10--------| G |----------------11--12-------12------------|------------------------| D |12--10--12--14-----------------------------|------------------------| A |-------------------------------------------|------------------------| E |-------------------------------------------|------------------------| / e |15------------| e |--------------| e |15-----------|-14---------| B |17------------| B |17------------| B |17-----------|(17)--------| G |--------------| G |--------------| G |-------------|------------| D |--------------| D |--------------| D |-------------|------------| A |--------------| A |--------------| A |-------------|------------| E |--------------| E |--------------| E |-------------|------------| RhyFig2a twice, 3 first time RhyFig2 twice, with distortion, and chord progression: E5,D5,C5,A5,B5,D#5 end RhyFig3 RhyFig3 e |----------------|----------------|-----------------|----------------| B |----------------|----------------|-----------------|----------------| G |4-4-4-4-4-4-4-4-|4-4-4-4-4-4-4-4-|-----------------|----------------| D |2-2-2-2-2-2-2-2-|2-2-2-2-2-2-2-2-|-----------------|--------------6-| A |2-2-2-2-2-2-2-2-|2-2-2-2-2-2-2-2-|4-4-5-4-4-4-5-4-4|4-4-5-4-4-4-5-4-| E |0-0-0-0-0-0-0-0-|0-0-0-0-0-0-0-0-|2-2-3-2-2-2-3----|2-2-3-2-2-2-3---| Repeat RhyFig3 once alone, then 4 times with vocals. e |----------------|----------------|----------------|----------------| B |----------------|----------------|----------------|----------------| G |4---------------|(4)-------------|3---------------|----------------| D |5---------------|(5)-------------|4---------------|----------------| A |5---------------|(5)-------------|4---------------|----------------| E |3---------------|(3)-------------|2---------------|X\\-17\\-| w/ RhyFig1 4 times N.C. (Em) e |17p12----------12-17p12----------12-|17p12----------12-15p12----------12-| B |------13-12-13----------13-12-13----|------13-12-13----------13-12-13----| G |------------------------------------|------------------------------------| D |------------------------------------|------------------------------------| A |------------------------------------|------------------------------------| E |------------------------------------|------------------------------------| e |17p12----------12-17p12----------12-|17p12-------12-12-15p12----| B |------13-13-12----------13-12-13----|------13-12-------------13-| G |------------------------------------|---------------------------| D |------------------------------------|---------------------------| A |------------------------------------|---------------------------| E |------------------------------------|---------------------------| e |----19-19-17-17-17-17-15-15-15-14-14-14-14-|17-17-17-15-15-15-14-| B |/17----------------------------------------|---------------------| G |-------------------------------------------|---------------------| D |-------------------------------------------|---------------------| A |-------------------------------------------|---------------------| E |-------------------------------------------|---------------------| f u l l e |14-14-14-14------------|-------------------17h19---|-----------------| B |------------15---15-17-|17--------17p15p14-------17|15p14------------| G |-----------------------|-----------------------------|------16-14\\--| D |-----------------------|-----------------------------|-----------------| A |-----------------------|-----------------------------|-----------------| E |-----------------------|-----------------------------|-----------------| e |X--------------------------|------------------------------------| B |---------------------------|------------------------------------| G |---------------------------|------------------------------2--4--| D |---------------------------|------------------------------------| A |---------------------------|------------------------------------| E |---------------------------|------------------------------------| e |------------------------|--------------|--------------------------------| B |------------------------|--------------|/15--13--12------13--12------12-| G |2--4--3--2-0h2----------|--------------|-------------14----------14-----| D |----------------4--2----|2-h4----------|--------------------------------| A |---------------------(2)|--------------|--------------------------------| E |------------------------|--------------|--------------------------------| e |---------------------------------|------------------------| B |------------12----12-12-12-12-12-|12-15-13-12-15-13-12-13-| G |11--12--14-----------------------|------------------------| D |---------------------------------|------------------------| A |---------------------------------|------------------------| E |---------------------------------|------------------------| e |12----------12-------------|14-------14-------15-15-------| B |---15-15-13----15-13h15-15-|---17-15----15-17-------17/19-| G |---------------------------|------------------------------| D |---------------------------|------------------------------| A |---------------------------|------------------------------| E |---------------------------|------------------------------| w/ RhyFig1A e |17-------19-17-------17----------19-17-------|17----------19-17-------| B |---20-19-------19-19----21-19-19-------19-19-|---21-19-19-------19-19-| G |---------------------------------------------|------------------------| D |---------------------------------------------|------------------------| A |---------------------------------------------|------------------------| E |---------------------------------------------|------------------------| all bends in next 2 ---> full full full 1.5 measures on B string only e |17----------19-17-------|14--14------14--------------14--| B |---21-19-19-------19-19-|17------17------17-(17)17------| G |------------------------|--------------------------------| D |------------------------|--------------------------------| A |------------------------|--------------------------------| E |------------------------|--------------------------------| half full e |19-p14------19-p14--14------|----14------14------14-14-14------14-14-| B |--------17----------17------|17------17------17------------17--------| G |----------------------------|----------------------------------------| D |----------------------------|----------------------------------------| A |----------------------------|----------------------------------------| E |----------------------------|----------------------------------------| e |----15------15------15------15--|----17------17------18------18--| B |18------18------18------18------|20------20------21------21------| G |--------------------------------|--------------------------------| D |--------------------------------|--------------------------------| A |--------------------------------|--------------------------------| E |--------------------------------|--------------------------------| e |----19------19--22--|(22)--------------//--------------| B |22------22----------|-----------------------//---------| G |--------------------|----------------------------//----| D |--------------------|---------------------------------/-| A |--------------------|-------------------------------------| E |--------------------|-------------------------------------| e |-----------------|----------------|----------------|-----------------| B |-----------------|----------------|----------------|-----------------| G |.----------------|----------------|----------------|----------------.| D |.----3-----3-----|3-----3---------|----3-----3-----|3-----3-----4---.| A |-----3-----3-----|3-----3-----2-2-|----3-----3-----|3-----3-----2----| E |-0-0-1-0-0-1-0-0-|1-0-0-1-0-0-----|0-0-1-0-0-1-0-0-|1-0-0-1-0-0------| e |----------------|-----------------|----------------|----------------| B |----------------|-----------------|----------------|----------------| G |----------------|.----------------|----------------|----------------| D |----------------|.--------------2-|4-5-------------|----------------| A |2-2-2-2-2-2-2-2-|---------2-3-5---|----3--------3-3|3-2-3-5-3-2-----| E |0-0-0-0-0-0-0-0-|-0-2-3-5---------|----------------|------------3-2-| 2 gtrs e |-----------------|------------------|----------------|----------------| B |-----------------|------------------|----------------|----------------| G |----------------.|------------------|2-4-------------|----------------| D |----------------.|------------4-2/5-|4-5-2--------2-2|2-0-2-4-2-0-----| A |-----------------|--------2-3-5-----|----3--------3-3|3-2-3-5-3-2-3-2-| E |0-0-0-0-0-0-0-00-|0-2-3-5-----------|----------------|------------3-2-| e |----------------|------------------|----------------|----------------| B |----------------|------------------|----5-----------|----------------| G |----------------|------------------|2-4-5-----------|----------------| D |----------------|------------4-2/5-|4-5-5-----------|----------------| A |----------------|--------2-3-5-----|----3--------3-3|3-2-3-5-3-2-----| E |0-0-0-0-0-0-0-00|0-2-3-5-----------|----------------|------------3-2-| e |----------------|----------------| B |----------------|----------------| G |4---------------|------2---------| D |2------------5-5|5-4-5---5-4-2-4-| A |2------------3-3|3-2-3-5-3-2-----| E |0---------------|------------3-2-| RhyFig1 4 times e |----------------|----------------|----------------| B |Ha!-Ha!-Ha!-Ha!-|----------------|----------------| G |----------------|----------------|4---------------| D |----------------|----------------|2---------------| A |----------------|54---54---54-|2---------------| E |----------------|32-0-32-0-32-|0---------------|

поиск лекарств
список лекарств

Фен шуй номер квартиры

фены в номера

modern-t.ru

www.mebelcheap.ru

Компьютерные столы. В наличии! Доставка на следующий день

mebelcheap.ru








О сайтеАккордыХит-парадПоискУроки ФорумыИщу песню
ПрограммыСвежачок-сПодпискаСтатьи
Яндекс.Метрика