Табулатура System Of A Down | Shimmy гитара табулатуры уроки тексты песен System Of A Down текст lyrics песня аккорды песни ноты нота электрогитара струна  
   А Б В Г Д Е Ж З И К Л М Н О П Р С Т У Ф Х Ч Ш Ы Э Ю Я       Разные песни
1-9 A B C D E F G H I J K L M N O P Q R S T U V W Y Z      Все исполнители in english

    



группа System Of A Down, Табулатура песни Shimmy

Группа: System Of A Down - другие аккорды (73),   диски (8),   фотографии (22)
Табулатура песни: Shimmy
Просмотров: 2709
Прислал: Зиц (volodia_pur@mail.ru)




    
Tuning: C,G,C,F,A,D 



C-Palm-mute--------Istop-p.m.I 

G------------------I---------I 

C-3-2-0-2-3-2-0-2--I-3-2-0-2-I 

xfigure it out xf.i.o. 



x3 P.M.------, 

C-3-2--2-2--7-6--6-6-I-3-2--2-2--7--------- 

G-3-2--2-2--7-6--6-6-I-3-2--2-2--7-6-6-6-6- 

C-3-2--2-2--7-6--6-6-I-3-2--2-2--7-6-6-6-6- 



Palm Mute 

C-3-2-0-2-3-2-0-2-3-2-0-2-3--2-I 

G-3-2-0-2-3-2-0-2-3-2-0-2-3--2-I 

C-3-2-0-2-3-2-0-2-3-2-0-2-3--2-I 

Education, fornication in you are, go 



C-2-3-2-0---------I 

G---------3-2-0---I 

C---------------6-I 



Palm Mute 

C-3-2-0-2-3-2-0-2-3-2-0-2-3--2-I 

G-3-2-0-2-3-2-0-2-3-2-0-2-3--2-I 

C-3-2-0-2-3-2-0-2-3-2-0-2-3--2-I 



C-2-3--6-7-6H7-\\3-2-0-------I 

G---------------------------I 

C---------------------------I 



Palm Mute 

C-3-2-0-2-3-2-0-2-3-2-0-2-3--2-I 

G-3-2-0-2-3-2-0-2-3-2-0-2-3--2-I 

C-3-2-0-2-3-2-0-2-3-2-0-2-3--2-I 



C-2-3-2-0---------I 

G---------3-2-0---I 

C---------------6-I 



Palm Mute 

C-3-2-0-2-3-2-0-2-3-2-0-2-3--2-I 

G-3-2-0-2-3-2-0-2-3-2-0-2-3--2-I 

C-3-2-0-2-3-2-0-2-3-2-0-2-3--2-I 



C-2-3--6-7-6H7-\\3-2-3-2-0--------------I 

G--------------------------3-2-3-2-0---I 

C------------------------------------6-I 



x3 P.m.------, 

C-2-2--6-6-I-2-2------------I 

G-2-2--6-6-I-2-2--6-6-6-6-6-I 

C-2-2--6-6-I-2-2--6-6-6-6-6-I 

A day in your life, A day, I want out I want out 





Palm Mute 

C-3-2-0-2-3-2-0-2-3-2-0-2-3--2-I 

G-3-2-0-2-3-2-0-2-3-2-0-2-3--2-I 

C-3-2-0-2-3-2-0-2-3-2-0-2-3--2-I 



C-2-3-2-0---------I 

G---------3-2-0---I 

C---------------6-I 



Palm Mute 

C-3-2-0-2-3-2-0-2-3-2-0-2-3--2-I 

G-3-2-0-2-3-2-0-2-3-2-0-2-3--2-I 

C-3-2-0-2-3-2-0-2-3-2-0-2-3--2-I 



C-2-3--6-7-6H7-\\3-2-0-------I 

G---------------------------I 

C---------------------------I 



Palm Mute 

C-3-2-0-2-3-2-0-2-3-2-0-2-3--2-I 

G-3-2-0-2-3-2-0-2-3-2-0-2-3--2-I 

C-3-2-0-2-3-2-0-2-3-2-0-2-3--2-I 



C-2-3-2-0---------I 

G---------3-2-0---I 

C---------------6-I 



Palm Mute 

C-3-2-0-2-3-2-0-2-3-2-0-2-3--2-I 

G-3-2-0-2-3-2-0-2-3-2-0-2-3--2-I 

C-3-2-0-2-3-2-0-2-3-2-0-2-3--2-I 



C-2-3--6-7-6H7-\\3-2-3-2-0--------------I 

G--------------------------3-2-3-2-0---I 

C------------------------------------6-I 



x8 x4 x3 P.M.------, 

C-2-2--6-6-I---3p2----I--3p2-3p2-I-3-3-3-3-3-I 

G-2-2--6-6-I---3p2----I--3p2-3p2-I-3-3-3-3-3-I 

C-2-2--6-6-I---3p2----I--3p2-3p2-I-3-3-3-3-3-I 

P.M. 



Cleaner tone, but still distorted. 

P.M.------------,x5 Pinch Harmonics-, 

C-2-3-2-0---------I-2-3-2-0---------I 

G---------3-2-0---I---------3-2-0---I 

C---------------6-I---------------6-I 



Palm Mute x4 

C-3-2-0-2-3-2-0-2-3-2-0-2-3--2-I 

G-3-2-0-2-3-2-0-2-3-2-0-2-3--2-I 

C-3-2-0-2-3-2-0-2-3-2-0-2-3--2-I 

Продолжаем грести бабос на ботах в Telegram.
Только в этот раз есть вариант автоматизировать это дело, привлекая рефералов. Вы можете заработать если »

Don\'t be late for school again boy --------------------------------- Yeah it may suck. But I got my version down. Transcribed by Richard Strothman ZimZumSnow@aol.com - http://www.hometown.aol.com/zimzumsnow/ Version 7.0 Tabbed by: Ryan S - mesaboogie6@hotmail.com Tuning: C-G-C-F-A-D |---------------------------------------------------------------------| |----10---10---10---10---10---10----13---13---13---13---13---13-------| |--7----7----7----7----7----7-----10---10---10---10---10---10---------| |---------------------------------------------------------------------| |---------------------------------------------------------------------| |---------------------------------------------------------------------| I think Daron uses a 12 string or something to get this sound |------------------------------------------------------------------| |----10---10---10--11-----11-----10----10----------13----13----13--| |--7----7----7-------10------10-----10----10----10----10----10-----| |------------------------------------------------------------------| |------------------------------------------------------------------| |------------------------------------------------------------------| |-10----10--------------------| |----10----11----11--10----10-| |-------------10--------10----| |-----------------------------| |-----------------------------| |-----------------------------| |---------------------------------------------------------------------| |---------------------------------------------------------------------| |---------------------------------------------------------------------| |--0----3-2-1-0-2-0-------3--3--2--2----------------------------------| |--0----3-2-1-0-2-0-------1--1--0--0----------------------------------| |--0----3-2-1-0-2-0---------------------------------------------------| pm----------- |---------------------------------------------------------------------| |---------------------------------------------------------------------| |---------------------------------------------------------------------| |---3-2-1-0-1-0-3-2-1-0-2-0-3-2-1-0-1-0-3-2-1-0-2-0-----3--3---2--2---| |---3-2-1-0-1-0-3-2-1-0-2-0-3-2-1-0-1-0-3-2-1-0-2-0-----1--1---0--0---| |---3-2-1-0-1-0-3-2-1-0-2-0-3-2-1-0-1-0-3-2-1-0-2-0-------------------| pm----------------------------------------------- |---10----10--12----12--13----13--12----12----------------------------| |------10--------10--------10--------10-------------------------------| |---------------------------------------------------------------------| |---------------------------------------------------------------------| |---------------------------------------------------------------------| |---------------------------------------------------------------------| for the verse play the intro and this is the new riff above that is added to it |---------------------------------------------------------------------| |---------------------------------------------------------------------| |---------------------------------------------------------------------| |---------------------------------------------------------------------| |----7-7-7-7-7---88--0---7--------------------------------------------| |---------------------------------------------------------------------| vibrato on the last note |---------------------------------------------------------------------| |---------------------------------------------------------------------| |---------------------------------------------------------------------| |--0--0-0-2-0-0-3-0-0-2-0-0-------------------------------------------| |--0--0-0-2-0-0-3-0-0-2-0-0-------------------------------------------| |--0--0-0-2-0-0-3-0-0-2-0-0-------------------------------------------| pm------------------------ |---------------------------------------------------------------------| |---------------------------------------------------------------------| |---------------------------------------------------------------------| |--0-0--0--0-0-0--3-3-------------------------------------------------| |--0-0--0--0-0-0--3-3-0-----------------------------------------------| |--0-0--0--0-0-0--3-3-0----2------------------------------------------| pm------------------ u can vibrato this 2nd fret a bit Education, fornication, in you are, go Education, subjugation, now you\'re out, go Education, fornication, in you are, go Don\'t be late for school again boy~ I think me, I want life I think me, I want a house and a wife I want to shimmy- shimmy- shimmy- Through the break of dawn, yeah Education, fornication, in you are, go Education, subjugation, now you\'re out, go Education, fornication, in you are, go Don\'t be late for school again girl~ I think me, I want life I think me, I want a house and a wife I want to shimmy- shimmy- shimmy- Through the break of dawn, yeah (2x) Indoctrination, of a nation Indoctrination, of a nation Subjugation of damnation Subjugation of damna... Don\'t be late for school again boy Don\'t be late for school again girl Don\'t be late for school again boy Don\'t be late for school again girl








О сайтеАккордыХит-парадПоискУроки ФорумыИщу песню
ПрограммыСвежачок-сПодпискаСтатьи
Яндекс.Метрика