Табулатура System Of A Down | A.T.W.A. гитара табулатуры уроки тексты песен System Of A Down текст lyrics песня аккорды песни ноты нота электрогитара струна  
   А Б В Г Д Е Ж З И К Л М Н О П Р С Т У Ф Х Ч Ш Ы Э Ю Я       Разные песни
1-9 A B C D E F G H I J K L M N O P Q R S T U V W Y Z      Все исполнители in english

    



группа System Of A Down, Табулатура песни A.T.W.A.

Группа: System Of A Down - другие аккорды (73),   диски (8),   фотографии (22)
Табулатура песни: A.T.W.A.
Просмотров: 6487
Прислал: Зиц (volodia_pur@mail.ru)




    
Intro: (Clean) x4 

D--------------------------------------------------I 

A--------------------------------------------------I 

F-----3-----2-----5-----7------8-----7------5----3-I 

C--------------------------------------------------I 

G--------------------------------------------------I 

C-0-5---5-3---3-7---7-8---8-10---10-8---8-7---7-5--I 





C-5-5-5-5-55-5-I 

G-5-5-5-5-55-5-I X8 

C-5-5-5-5-55-5-I 



(Semi-Overdriven) x4 

D--------------------------------------------------I 

A--------------------------------------------------I 

F-----3-----2-----5-----7------8-----7------5----3-I 

C--------------------------------------------------I 

G--------------------------------------------------I 

C---5---5-3---3-7---7-8---8-10---10-8---8-7---7-5--I 





C-5-5-5-5-55-5-I I-5-5-5-5-55-6-I 

G-5-5-5-5-55-5-I X7 I-5-5-5-5-55-6-I 

C-5-5-5-5-55-5-I I-5-5-5-5-55-6-I 



 

C-5--5--5--5-6--I 

G-5--5--5--5-6--I X4 

C-5--5--5--5-6--I 



Solo: 

D----------------------------------------------------I 

A----------------------------------------------------I 

F----------------------------------------------------I 

C--/-5-5-\\-3-3-/-7-7-/-8-8-/-10-10-\\-8-8-\\-7-7-\\-5-5-I 

G----------------------------------------------------I 

C----------------------------------------------------I 



D----------------------------------------------------I 

A----------------------------------------------------I 

F----------------------------------------------------I 

C--/-5-5-\\-3-3-/-7-7-/-8-8-/-10-10-\\-8-8-\\-7-7-\\-5-5-I 

G----------------------------------------------------I 

C----------------------------------------------------I 



                    x2 

F-------------------------------------I 

C-\\-5-5-3-3-7-7-8-8-10-10-8-8-7-7-5-5-I 

G-\\-5-5-3-3-7-7-8-8-10-10-8-8-7-7-5-5-I 

C-\\-5-5-3-3-7-7-8-8-10-10-8-8-7-7-5-5-I 





Продолжаем грести бабос на ботах в Telegram.
Только в этот раз есть вариант автоматизировать это дело, привлекая рефералов. Вы можете заработать если »

C-5-5-5-5-55-5-I I-5-5-5-5-55-6-I G-5-5-5-5-55-5-I X7 I-5-5-5-5-55-6-I C-5-5-5-5-55-5-I I-5-5-5-5-55-6-I C-5--5--5--5-6--I G-5--5--5--5-6--I X4 C-5--5--5--5-6--I Nanananana... Nanananana... Hey you, see me Pictures crazy All the world I\'ve seen before me passing by I\'ve got, nothing To gain, to loose All the world I\'ve seen before me passing by (Chorus) You don\'t care about how I feel I don\'t feel it anymore You don\'t care about how I feel I don\'t feel it anymore You don\'t care about how I feel I don\'t feel it anymore You don\'t care about how I feel I don\'t feel it anymore Anymore, Nanananana... Hey you, are me Not so pretty All the world I\'ve seen before me passing by Silent my voice I\'ve got no choice All the world I\'ve seen before me passing by [Chorus] I don\'t see (Anymore!) I don\'t hear (Anymore!) I don\'t speak (Anymore!) I don\'t feel Nanananana... Nanananana... Hey you, see me Pictures crazy All the world I\'ve seen before me passing by I\'ve got, nothing To gain, to loose All the world I\'ve seen before me passing by [Chorus] I don\'t sleep (Anymore!) I don\'t eat (Anymore!) I don\'t live (Anymore!) I don\'t feel (Anymore!)

центр-инструмента18
В продаже - мозаично шлифовальная, цены ниже! Неликвидные остатки
центр-инструмента18.рф







О сайтеАккордыХит-парадПоискУроки ФорумыИщу песню
ПрограммыСвежачок-сПодпискаСтатьи
Яндекс.Метрика