Табулатура Аквариум | Гоpод Золотой (2) гитара табулатуры уроки тексты песен Аквариум текст lyrics песня аккорды песни ноты нота электрогитара струна  
   А Б В Г Д Е Ж З И К Л М Н О П Р С Т У Ф Х Ч Ш Ы Э Ю Я       Разные песни
1-9 A B C D E F G H I J K L M N O P Q R S T U V W Y Z      Все исполнители in english

    



группа Аквариум, Табулатура песни Гоpод Золотой (2)

Продолжаем грести бабос на ботах в Telegram.
Только в этот раз есть вариант автоматизировать это дело, привлекая рефералов. Вы можете заработать если »

Группа: Аквариум - другие аккорды (421),   о группе (24 статей),   диски (42),   фотографии (43)
Табулатура песни: Гоpод Золотой (2)
Просмотров: 5563
Подобрал: Vovchik (katenika1@hotmail.com)




    
1 и 2 куплеты



-----3--2--0-----0-----------7--5--3--2--3--------0--8--7--5--3--2--3--5--8--

---0-------1--4--------0--0--------------------0-----------------------------

-----------------------0-----------------------0-----------------------------

--------------4-----2--------5--4--2--1-----2--------7--5--4--2--1--2--4--7--

-----------------------------------------------------------------------------

-----0-----------0-----------------------0-----------------------------------



               

---7--5--3--5--2--------

---------------------4--

------------------2-----

---5--4--2--4-----------

---------------2--------

------------------------

               ^баррэ на 2 ладу



-----3--2--0-----0-----------7--5--3--2--3--------0--8--7--5--3--2--3--5--8--

---0-------1--4--------0--0--------------------0-----------------------------

-----------------------0-----------------------0-----------------------------

--------------4-----2--------5--4--2--1-----2--------7--5--4--2--1--2--4--7--

-----------------------------------------------------------------------------

-----0-----------0-----------------------0-----------------------------------





Продолжаем грести бабос на ботах в Telegram.
Только в этот раз есть вариант автоматизировать это дело, привлекая рефералов. Вы можете заработать если »

---7--5--3--5--0-------- ---------------------0-- ---------------------0-- ---5--4--2--4-----2----- ------------------------ ---------------0-------- припев ---7--7-----------------------5--5--5-----------------------------------0-- ------------------------------------------------1--0-----0--0--------1----- ---------7--7--7--7--5--4--5-----------5--5--5--------2-----------2-------- ---------6--6--6-----------------------4--4--4-----------------4----------- ------------------0-------------------------------------------------------- ------0-----------------------------0-----------3-------------------------- ---5--3--2--0--0--------------0--5--3--2--0--0-----0-- ------------------4--------1--------------------4----- ------------------2-----2-----------------------2--0-- ---------------------4-------------------------------- ---------------3--2--------------------------3--2----- ---------------------------------------------------0-- ^баррэ на 2ладу

найти лекарство
список лекарств






О сайтеАккордыХит-парадПоискУроки ФорумыИщу песню
ПрограммыСвежачок-сПодпискаСтатьи
Яндекс.Метрика