Табулатура System Of A Down | Suggestions гитара табулатуры уроки тексты песен System Of A Down текст lyrics песня аккорды песни ноты нота электрогитара струна  
   А Б В Г Д Е Ж З И К Л М Н О П Р С Т У Ф Х Ч Ш Ы Э Ю Я       Разные песни
1-9 A B C D E F G H I J K L M N O P Q R S T U V W Y Z      Все исполнители in english

    



группа System Of A Down, Табулатура песни Suggestions

Группа: System Of A Down - другие аккорды (73),   диски (8),   фотографии (22)
Табулатура песни: Suggestions
Просмотров: 2476
Подобрал: KIM (kimfly@yandex.ru)




    
С начала идет вступление



---------------------------------------------------------------------

-------0-------0-------0-------0--------0-------0-------0-------0----

-----4---4---4---4---4---4---4---4----5---5---5---5---5---5---5---5--

---2-------2-------2-------2--------3-------3-------3-------3--------

---------------------------------------------------------------------

---------------------------------------------------------------------





После нужно включить дисторшен и играть приглушая струны с немного возрастающим темпом



---------------------------------------------------------------------

---------------------------------------------------------------------

-----4---4---4---4---4---4---4---4----5---5---5---5---5---5---5---5--

----2---2---2---2---2---2---2---2----3---3---3---3---3---3---3---3---

---------------------------------------------------------------------

---------------------------------------------------------------------



Припев,который играется с дисторшеном:



---------------------------------------------------------------------

---------------------------------------------------------------------

---------------------------------------------------------------------

----2-2-2-2-2-2-2-2-2-2-2-2-2-2-2-2---3-3-3-3-3-3-3-3-3-3-3-3-3-3-3-3

----2-2-2-2-2-2-2-2-2-2-2-2-2-2-2-2---3-3-3-3-3-3-3-3-3-3-3-3-3-3-3-3

Продолжаем грести бабос на ботах в Telegram.
Только в этот раз есть вариант автоматизировать это дело, привлекая рефералов. Вы можете заработать если »

----0-0-0-0-0-0-0-0-0-0-0-0-0-0-0-0---1-1-1-1-1-1-1-1-1-1-1-1-1-1-1-1 Watching From a post up high From where you see the ships afar From a well trained eye The waves all keep on crashing by If you are the light post Then you own the working class But if you want the answers Then you better give a piece of ass Warning Post hypnotic suggestions Running the ships ashore The orange light that follows Will soon proclaim itself God If you point your answers You better get ready for the fire Get ready for the fire The ships are multiplying day after day sir And they\'re coming close to the shore sir Shore sir We need to evacuate the light post It\'s all over, it\'s all over, it\'s all over.








О сайтеАккордыХит-парадПоискУроки ФорумыИщу песню
ПрограммыСвежачок-сПодпискаСтатьи
Яндекс.Метрика