Табулатура Red Hot Chili Peppers | The Zephyr Song гитара табулатуры уроки тексты песен Red Hot Chili Peppers текст lyrics песня аккорды песни ноты нота электрогитара струна  
   А Б В Г Д Е Ж З И К Л М Н О П Р С Т У Ф Х Ч Ш Ы Э Ю Я       Разные песни
1-9 A B C D E F G H I J K L M N O P Q R S T U V W Y Z      Все исполнители in english

    



группа Red Hot Chili Peppers, Табулатура песни The Zephyr Song

Группа: Red Hot Chili Peppers - другие аккорды (395),   о группе (3 статей),   диски (15),   фотографии (113)
Табулатура песни: The Zephyr Song
Просмотров: 4932
Прислал: Back Door Man (backman@chat.ru)




    
Tuning Standard

Intro

-------------------------------
-----8------6------3------4----
---9------7------4------5------
-7------5------2------3--------
-------------------------------
-------------------------------

Verse

-----------------------------------------------------------
-----8-8-7---------4-4-5----------3-3-2----------3-3p5-----
---9-------9-7---7-------7-5----4-------4-2----5-------5---
-7--------------5-------------2--------------3-------------
-----------------------------------------------------------
-----------------------------------------------------------

------------------------------------------------
-----8-7-9------6-5--------3-2-4-------4--4-----
---9----------7----7-----4-------4----5--5------
-7----------5----------2-------------3--3-------
------------------------------------------------
------------------------------------------------


Chorus

 Dm D   A 
-1--2-----------------------
-3--3-----------------------
-2--2--2--------------------
-------2--------------------
-------0--------------------
----------------------------


Interlude 1

------------------------------------------------
-----8-7-9------6-5--------3-2-4-------4--4-----
---9----------7----7-----4-------4----5--5------
-7----------5----------2-------------3--3-------
------------------------------------------------
------------------------------------------------

Interlude 2

Продолжаем грести бабос на ботах в Telegram.
Только в этот раз есть вариант автоматизировать это дело, привлекая рефералов. Вы можете заработать если »

-12-10-12-12-12-10-12---------10-8-10-10-10--10-12---------12-10-12-- ------------------------12b-10----------------------12b-10----------- --------------------------------------------------------------------- --------------------------------------------------------------------- --------------------------------------------------------------------- --------------------------------------------------------------------- --12--10-12---------10-8-10-10-10-8-10-12------------------------ -------------12b-10-------------------------12-10---------------- ---------------------------------------------------9------------- ----------------------------------------------------------------- ----------------------------------------------------------------- ----------------------------------------------------------------- Verse Change Am G E F -0--3-----1----------- -1--0--0--1----------- -2--0--1--2----------- -2--0--2--3----------- -0--2--2-------------- ----3--0-------------- Outro --------------------------------x2 -14-14-14-14--15-15-15-17-17---- -------------------------------- -------------------------------- -------------------------------- -------------------------------- --------------------------------x2 -14-14-15-14-15--15-15-17-17---- -------------------------------- -------------------------------- -------------------------------- -------------------------------- -17---- -15---- ------- ------- ------- -------








О сайтеАккордыХит-парадПоискУроки ФорумыИщу песню
ПрограммыСвежачок-сПодпискаСтатьи
Яндекс.Метрика