Табулатура Ария | Дезертир гитара табулатуры уроки тексты песен Ария текст lyrics песня аккорды песни ноты нота электрогитара струна  
   А Б В Г Д Е Ж З И К Л М Н О П Р С Т У Ф Х Ч Ш Ы Э Ю Я       Разные песни
1-9 A B C D E F G H I J K L M N O P Q R S T U V W Y Z      Все исполнители in english

    



группа Ария, Табулатура песни Дезертир

Продолжаем грести бабос на ботах в Telegram.
Только в этот раз есть вариант автоматизировать это дело, привлекая рефералов. Вы можете заработать если »

Группа: Ария - другие аккорды (629),   о группе (7 статей),   диски (18),   фотографии (92)
Табулатура песни: Дезертир
Просмотров: 4650
Подобрал: Tytan (Tytan_metal@mail.ru)




    
Вступление:                                                      повт. 3 раза

|-----------------------------------------------------------------------------|

|-----------------------------------------------------------------------------|

|-----------------------------------------------------------------------------|

|----------------7------------8------------5------------7---------------------|

|----5----5--5---5--5---5--5--5--5---5--5--5--5---5--5--5---5--7--8-----------|

|--------------------------------------------------------------------8--------|



                                                           1.------  

|---------------------------------------------------------|-------------------|

|---------------------------------------------------------|-------------------|

|---------------------------------------------------------|-------------------|

|----------------7------------8------------5------------7-|-------------------|

Продолжаем грести бабос на ботах в Telegram.
Только в этот раз есть вариант автоматизировать это дело, привлекая рефералов. Вы можете заработать если »

|----5----5--5---5--5---5--5--5--5---5--5--5--5---5--5--5-|-8--7--5-----------| |---------------------------------------------------------|----------8--------| ------2. |-------------------| Отрезок от 1 до 2 играется со словами: |-------------------| \"Слишком просто сладить с тобой\" |-------------------| Просто послушайте запись. |-------------------| |----5--------------| |-------8--6--5-----|

искать в аптеке
список лекарств






О сайтеАккордыХит-парадПоискУроки ФорумыИщу песню
ПрограммыСвежачок-сПодпискаСтатьи
Яндекс.Метрика