Табулатура Король и Шут | Охотник (вступление) гитара табулатуры уроки тексты песен Король и Шут текст lyrics песня аккорды песни ноты нота электрогитара струна  
   А Б В Г Д Е Ж З И К Л М Н О П Р С Т У Ф Х Ч Ш Ы Э Ю Я       Разные песни
1-9 A B C D E F G H I J K L M N O P Q R S T U V W Y Z      Все исполнители in english

    



группа Король и Шут, Табулатура песни Охотник (вступление)

Продолжаем грести бабос на ботах в Telegram.
Только в этот раз есть вариант автоматизировать это дело, привлекая рефералов. Вы можете заработать если »

Группа: Король и Шут - другие аккорды (277),   о группе (10 статей),   диски (9),   фотографии (68)
Табулатура песни: Охотник (вступление)
Просмотров: 7504
Прислал: КиШ (RUSTEM12@YANDEX.RU)




    

  G-|-6-^6-^6-^6-   

  D-|-6------------

  A-|-4------------ 





Аккорды 

G-|-6-6-6-6-6-6-6-6-6-6-2-2-2-2-2---

D-|-6-6-6-6-6-6-6-6-6-6-2-2-2-2-24-4-4-4-4

A-|-4-4-4-4-4-4-4-4-4-4-0-0-0-0-04-4-4-4-4

E-|--------------------------------------2-2-2-2-2



припев

G-|-6-6-6-6-2-

D-|-6-6-6-6-2-4-

A-|-4-4-4-4-0-2-



                                     Cоло





  E||------------------|-----------------|--------------------|

  B||------------------|-----------------|--------------------|

  G||------------------|--6--6--------6--|--------------------|

  D||------------------|--6--6--------6--|--------6-----------|

  A||------------------|--4--4--4-4-4----|--------4-----------|

  E||------------------|-----------------|--------------------|





                                                                           

--------------------------|-------------4--2--0----|-----0--2-------------|

--------------5-----7-----|-------5----------------|--2--------2----------|

--------4--6-----6-----6--|----6-----6-------------|----------------------|

--4--6--------------------|------------------------|----------------------|

--------------------------|------------------------|----------------------|

--------------------------|------------------------|----------------------|




Продолжаем грести бабос на ботах в Telegram.
Только в этот раз есть вариант автоматизировать это дело, привлекая рефералов. Вы можете заработать если »

--9--7----------------|----------------------|--------------------------| --------9--7----------|--------7--9----------|--------7--9--------7--9--| ----------------------|--8--9----------------|--8--9--------8--9--------| ----------------------|----------------------|--------------------------| ----------------------|----------------------|--------------------------| ----------------------|----------------------|--------------------------| --------------------------------|--------------------------------| --------------------------------|--------------------------------| --------------------------------|--------------------------------| --9--11--11--11--9--11--11--11--|--9--11--11--11--9--11--11--11--| --9--11--11--11--9--11--11--11--|--9--11--11--11--9--11--11--11--| --------------------------------|--------------------------------| --------------------------|--------------------------|-----------------------| --------------------------|--------------------------|-----------------------| --8--9--9--9--8--9--9--9--|--8--9--9--9--8--9--9--9--|-----------------------| --------------------------|--------------------------|--9--------7--9--7--9--| --------------------------|--------------------------|-----------------------| --------------------------|--------------------------|-----------------------| -----------------|------------------|-------------------|------------------|| -----------------|------------------|-------------------|------------------|| --------8--------|------------------|-------------------|------------------|| --11-------------|------------------|-------------------|------------------|| -----------------|------------------|-------------------|------------------|| -----------------|------------------|-------------------|------------------||

лекарство в аптеке
список лекарств






О сайтеАккордыХит-парадПоискУроки ФорумыИщу песню
ПрограммыСвежачок-сПодпискаСтатьи
Яндекс.Метрика