Табулатура Ария | Осколок льда (2) гитара табулатуры уроки тексты песен Ария текст lyrics песня аккорды песни ноты нота электрогитара струна  
   А Б В Г Д Е Ж З И К Л М Н О П Р С Т У Ф Х Ч Ш Ы Э Ю Я       Разные песни
1-9 A B C D E F G H I J K L M N O P Q R S T U V W Y Z      Все исполнители in english

    



группа Ария, Табулатура песни Осколок льда (2)

Продолжаем грести бабос на ботах в Telegram.
Только в этот раз есть вариант автоматизировать это дело, привлекая рефералов. Вы можете заработать если »

Группа: Ария - другие аккорды (629),   о группе (7 статей),   диски (18),   фотографии (92)
Табулатура песни: Осколок льда (2)
Просмотров: 16829
Прислал: Зиц (volodia_pur@mail.ru)




    
 Нашёл: Зиц

 г.Томск

 Volodia_pur@mail.ru



 Ария - Осколок льда



 |-------------------------|

 |-----0--1--3--5----1--3--|

 |--2----------------------|

 |-------------------------|

 |--0----------------------|

 |-------------------------|

                                                                            

 ---------------------------|------------------------|---------------------||

 --0--1--0-1-0------0-----0-|---1--3--5----1--3----0-|--1-0----------------||

 --------------2-------2----|------------------------|------2--------------||

 ---------------------------|------------------------|---------------------||

 --------------0-------0----|------------------------|------0--------------||

 ---------------------------|------------------------|---------------------||





 Основной перебор:



       Am                                           C

 E||---------------------------|--------------------------|

 B||---------1-----0-----1-----|-----1-----0-----1--------|

 G||*-----2-----2-----2--------|--2-----2-----2--------0--|

 D||*--------------------------|--------------------------|

 A||---0--------------------0--|--------------------3-----|

 E||---------------------------|--------------------------|



                 F                                    

 --------------------------|--------------------------|

 --1-----0-----1--------1--|-----0-----1--------1-----|

 -----0-----0--------0-----|--0-----0--------2-----2--|

 --------------------------|--------------------------|

 -----------------3--------|--------------3-----------|

 --------------------------|--------------------------|

           G                       Am                    

 --------------------------|--------------------------|

 --0-----1--------3-----2--|-----3--------1-----0-----|

 -----2--------4-----4-----|--4--------2-----2-----2--|

 --------------------------|--------------------------|

 -----------5--------------|--------0-----------------|

 --------------------------|--------------------------|

Продолжаем грести бабос на ботах в Telegram.
Только в этот раз есть вариант автоматизировать это дело, привлекая рефералов. Вы можете заработать если »

2 раза --------------------------|--------------------| --1-----3-----1-----0-----|--1-----------------| -----2-----2-----2-----2--|-------------------*| --------------------------|-------------------*| --------------------------|--------------------| --------------------------|--------------------| (перебором) Am C Ночь унесла тяжелые тучи F G Am Но дни горьким сумраком полны Am C Мы расстаемся - так будет лучше F G Am Вдвоем нам не выбраться из тьмы... ПРИПЕВ: (боем) F G Am A5 Am Я любил и ненавидел F G Am A5 Am Но теперь душа пуста F G C G Am Все исчезло, не оставив и следа F G D Dsus4 D Dm Dsus4 Dm Am A5 Am И не знает боли в груди осколок льда... Я помню все, о чем мы мечтали Но жизнь не для тех, кто любит сны Мы слишком долго выход искали Но шли бесконечно вдоль стены... ПРИПЕВ. Пусть каждый сам находит дорогу - Мой путь будет в сотню раз длинней Но не виню ни черта, ни Бога За все платить придется мне! ПРИПЕВ.

найти лекарство
список лекарств






О сайтеАккордыХит-парадПоискУроки ФорумыИщу песню
ПрограммыСвежачок-сПодпискаСтатьи
Яндекс.Метрика