Табулатура Король и Шут | Ведьма и Осел гитара табулатуры уроки тексты песен Король и Шут текст lyrics песня аккорды песни ноты нота электрогитара струна  
   А Б В Г Д Е Ж З И К Л М Н О П Р С Т У Ф Х Ч Ш Ы Э Ю Я       Разные песни
1-9 A B C D E F G H I J K L M N O P Q R S T U V W Y Z      Все исполнители in english

    



группа Король и Шут, Табулатура песни Ведьма и Осел

Продолжаем грести бабос на ботах в Telegram.
Только в этот раз есть вариант автоматизировать это дело, привлекая рефералов. Вы можете заработать если »

Группа: Король и Шут - другие аккорды (277),   о группе (10 статей),   диски (9),   фотографии (68)
Табулатура песни: Ведьма и Осел
Просмотров: 5522
Подобрал: Зиц (Volodia_pur@mail.ru)




    
 ПАНКи - Хой! (интересное восклицание)



 КиШ - Ведьма и Осёл

 



     Вступление:                          Куплет:              

 |-5--7-5--3-5--7-5           |------------------------------------------------

 |-5--7-5--3-5--7-5           |------------------------------------------------

 |-----------------           |----------2--------------0-----------2-0--------

 |-----------------           |-2--2-0-2---2-0-2--2-0-2---2-0------------2-0--- 

 |-----------------           |-------------------------------3--0-0---------3- 

 |-----------------.          |------------------------------------------------





 |---------------------------------------------------------------------------

 |-------0----------------------------------------------------------0--------

 |-----2---2-0-------2-0------------2-0------------2-0------------2---2-0----

 |-------------2---------2-0-2----------2-0------------2-0----------------2--

 |-0-0------------0-0-----------0-0---------3--0-0---------3--0-0------------

Продолжаем грести бабос на ботах в Telegram.
Только в этот раз есть вариант автоматизировать это дело, привлекая рефералов. Вы можете заработать если »

|---------------------------------------------------------------------------. Припев: |------------------------------------------------------------------------------ |------------------------------------------------------------------------------ |-2--2-0-----0--------------------------0------2--2-0-----0-------------------- |---------3-----2-----2-3-2-3-2-3-3-3-3---2------------3-----2-3-2-3-2-3-3-3-3- |------------------3------------------------3---------------------------------- |------------------------------------------------------------------------------ -------- -------- -0------ ---2---- -----3-- --------.

искать в аптеке
список лекарств






О сайтеАккордыХит-парадПоискУроки ФорумыИщу песню
ПрограммыСвежачок-сПодпискаСтатьи
Яндекс.Метрика