Басовая табулатура Ария | Штиль гитара табулатуры уроки тексты песен Ария текст lyrics песня аккорды песни ноты нота электрогитара струна  
   А Б В Г Д Е Ж З И К Л М Н О П Р С Т У Ф Х Ч Ш Ы Э Ю Я       Разные песни
1-9 A B C D E F G H I J K L M N O P Q R S T U V W Y Z      Все исполнители in english

    



группа Ария, Басовая табулатура песни Штиль

Продолжаем грести бабос на ботах в Telegram.
Только в этот раз есть вариант автоматизировать это дело, привлекая рефералов. Вы можете заработать если »

Группа: Ария - другие аккорды (629),   о группе (7 статей),   диски (18),   фотографии (92)
Басовая табулатура песни: Штиль
Просмотров: 2573
Подобрал: Пень_Цветущий (penb@mail.ru)




    
Инструмент: бас

Автор табулатуры:

Пень_Цветущий; penb@mail.ru; http://gtp.hobi.ru

04.07.2002



Примечание: Специальная благодарность Vladimir Mamonov, mvgvm@newmail.ru



       1 2 3 4

Строй: G D A D



Размер: 3/4

Темп: 109 bpm





Вступление:

|---------7------|---------0------|---------------|--2------0------|

|----------------|--7-------------|--0------------|----------------|

|--5-------------|----------------|---------------|----------------|

|----------------|----------------|---------------|----------------|





Куплет 1, 2:

|---------------|

|--0------------|

|---------------|

|---------------|







|--2------0------|---------------|---------------|--0--------------|--0------------|---------------|

|----------------|---------------|---------------|-----------2--3--|---------------|--0------------|

|----------------|--3------------|--3------------|-----------------|---------------|---------------|

|----------------|---------------|---------------|-----------------|---------------|---------------|







|--2------0------|---------------|--2------0------|---------------|---------------|--0--------------|

|----------------|--0------------|----------------|---------------|---------------|-----------2--3--|

|----------------|---------------|----------------|--3------------|--3------------|-----------------|

|----------------|---------------|----------------|---------------|---------------|-----------------|







|--0------------|---------------|--2------0------|

|---------------|--0------------|----------------|

|---------------|---------------|----------------|

|---------------|---------------|----------------|





Припев 1:

|---------------|--------------|---------------|

|---------------|--------------|---------------|

|--1------------|--------------|--3------------|

|---------------|--------------|---------------|







|----------------|---------------|----------------|---------------|----------------|

|----------------|---------------|----------------|---------------|----------------|

|-------------0--|--1------------|----------0--1--|--3------------|--3------1------|

|----------5-----|---------------|----------------|---------------|----------------|





Куплет 3, 4, 5, 6:

|-------------------|-------------------|-------------------|-------------------|-------------------|

|--0---0-2--3----2--|--0---0-2--3----2--|--------0--2----0--|--------0--2----0--|--------0--2----0--|

|-------------------|-------------------|--3---3------------|--3---3------------|-------------------|

|-------------------|-------------------|-------------------|-------------------|--5---5------------|







|-------------------|-------------------|----------------|-------------------|-------------------|

|--------0--2----0--|--0---0-2--3----2--|----------------|--0---0-2--3----2--|--0---0-2--3----2--|

|-------------------|-------------------|--0-------------|-------------------|-------------------|

|--5---5------------|-------------------|---------5------|-------------------|-------------------|







|-------------------|-------------------|-------------------|-------------------|-------------------|

|--------0--2----0--|--------0--2----0--|--------0--2----0--|--------0--2----0--|--0---0-2--3----2--|

|--3---3------------|--3---3------------|-------------------|-------------------|-------------------|

|-------------------|-------------------|--5---5------------|--5---5------------|-------------------|







|----------------|

|----------------|

|--0-------------|

|---------5------|





Припев 2, 3:

|-----------------|---------------|---------------|------------------|

|-----------------|---------------|---------------|----0-----0-------|

|--1------------0-|--1------------|--3------------|--3---------3-----|

|-------------5---|---------------|---------------|------------------|





|-----------------|---------------|---------------|------------------|----------------------|

|-----------------|---------------|---------------|------------0-----|--0--0--0-0-0--0--0-0-|

|--1------------0-|--1------------|--3------------|--------3-3----3--|----------------------|

|-------------5---|---------------|---------------|------------------|----------------------|







|---------------------|--3-------------|--2------0------|----------------------|

|--0--0--0-0-0--2--3--|---------2------|----------------|--0--0--0-0-0--0--0-0-|

|---------------------|----------------|----------------|----------------------|

|---------------------|----------------|----------------|----------------------|







|------------------2--|--3-------------|--2----------------|----------------------|

|--0--0--0-0-2--3-----|---------2------|-------------0-----|--0--0--0-0-0--0--0-0-|

|---------------------|----------------|---------3-3----3--|----------------------|

|---------------------|----------------|-------------------|----------------------|







|---------------------|--3-------------|--2------0------|----------------------|

|--0--0--0-0-0--2--3--|---------2------|----------------|--0--0--0-0-0--0--0-0-|

|---------------------|----------------|----------------|----------------------|

|---------------------|----------------|----------------|----------------------|







|------------------2--|--3------------|--2------------|

|--0--0--0-0-2--3-----|---------------|---------------|

|---------------------|---------------|---------------|

|---------------------|---------------|---------------|





Проигрыш:

Продолжаем грести бабос на ботах в Telegram.
Только в этот раз есть вариант автоматизировать это дело, привлекая рефералов. Вы можете заработать если »

|--2-0-------2-0-------| |----------------------| |----------------------| |------0--0------0--0--| |--2-0-------2-0-------|-------------------|--------------------|--0-------------------| |----------------------|-------------------|--------------------|----3-------5-3-------| |----------------------|------1------1--1--|--1--1--1--1--1--1--|----------------------| |------0--0------0--0--|--2-3--------------|--------------------|------5--5------5--5--| |----------------------|-------------------|--------------------|--2-0-------2-0-------| |--5-3-------5-3-------|-------------------|--------------------|----------------------| |----------------------|--3-0--------------|--------------------|----------------------| |------5--5------5--5--|------0------0--0--|--0--0--0--0--0--0--|------0--0------0--0--| |--2-0-------2-0-------|-------------------|--------------------|--0-------------------| |----------------------|-------------------|--------------------|----3-------5-3-------| |----------------------|------1------1--1--|--1--1--1--1--1--1--|----------------------| |------0--0------0--0--|--2-3--------------|--------------------|------5--5------5--5--| |----------------------|-------------------|--------------------| |--5-3-------5-3-------|-------------------|--------------------| |----------------------|--3-0--------------|--------------------| |------5--5------5--5--|------0------0--0--|--0--0--0--0--0--0--| Соло: |--2-0-------2-0-------| |----------------------| |----------------------| |------0--0------0--0--| --2-0-------2-0-------|-----------------|--------------|--0-------------------| ----------------------|-----------------|--------------|----3-------5-3-------| ----------------------|------1----------|--------------|----------------------| ------0--0------0--0--|--2-3------------|--------------|------5--5------5--5--| ----------------------|-----------------|--------------|--2-0-------2-0-------| --5-3-------5-3-------|-----------------|--------------|----------------------| ----------------------|--3-0------------|--------------|----------------------| ------5--5------5--5--|------0----------|--------------|------0--0------0--0--| --2-0-------2-0-------|-----------------|--------------|--0-------------------| ----------------------|-----------------|--------------|----3-------5-3-------| ----------------------|------1----------|--------------|----------------------| ------0--0------0--0--|--2-3------------|--------------|------5--5------5--5--| ----------------------|-----------------|--------------|------------------|------------------| --5-3-------5-3-------|-----------------|--------------|------------------|------------------| ----------------------|--3-0------------|--------------|------------------|------------------| ------5--5------5--5--|------0----------|--------------|--0------0----0-0-|--0------0--0--0--| ----------------|----------------------|------------------|------------------|--------------------| ----------------|----------------------|------------------|------------------|--------------------| --1------1------|--1-1-1--1--1-1-1--1--|------------------|------------------|--5--5--5--5--5--5--| ----------------|----------------------|--5------5----5-5-|--5------5--5--5--|--------------------| --------------------| --------------------| --5--5--5--5--5--5--| --------------------| Припев 4: |----------------------| |--0--0--0-0-0--0--0-0-| |----------------------| |----------------------| |---------------------|--3-------------|--2------0------|----------------------| |--0--0--0-0-0--2--3--|---------2------|----------------|--0--0--0-0-0--0--0-0-| |---------------------|----------------|----------------|----------------------| |---------------------|----------------|----------------|----------------------| |------------------2--|--3-------------|--2----------------|----------------------| |--0--0--0-0-2--3-----|---------2------|-------------0-----|--0--0--0-0-0--0--0-0-| |---------------------|----------------|---------3-3----3--|----------------------| |---------------------|----------------|-------------------|----------------------| |---------------------|--3-------------|--2------0------|----------------------| |--0--0--0-0-0--2--3--|---------2------|----------------|--0--0--0-0-0--0--0-0-| |---------------------|----------------|----------------|----------------------| |---------------------|----------------|----------------|----------------------| |------------------2--|--3------------|--2------------| |--0--0--0-0-2--3-----|---------------|---------------| |---------------------|---------------|---------------| |---------------------|---------------|---------------| Конец: |--2-0-------2-0-------|--2-0-------2-0-------| |----------------------|----------------------| |----------------------|----------------------| |------0--0------0--0--|------0--0------0--0--| |-----------------|-------------------|---------------| |-----------------|-------------------|---------------| |------1----------|-------------------|---------------| |--2-3------------|----0--0--0--0--0--|--0------------|

искать в аптеке
список лекарств






О сайтеАккордыХит-парадПоискУроки ФорумыИщу песню
ПрограммыСвежачок-сПодпискаСтатьи
Яндекс.Метрика