Табулатура Ария | Штиль гитара табулатуры уроки тексты песен Ария текст lyrics песня аккорды песни ноты нота электрогитара струна  
   А Б В Г Д Е Ж З И К Л М Н О П Р С Т У Ф Х Ч Ш Ы Э Ю Я       Разные песни
1-9 A B C D E F G H I J K L M N O P Q R S T U V W Y Z      Все исполнители in english

    



группа Ария, Табулатура песни Штиль

Продолжаем грести бабос на ботах в Telegram.
Только в этот раз есть вариант автоматизировать это дело, привлекая рефералов. Вы можете заработать если »

Группа: Ария - другие аккорды (629),   о группе (7 статей),   диски (18),   фотографии (92)
Табулатура песни: Штиль
Просмотров: 10702
Подобрал: Пень_Цветуший (penb@mail.ru)




    

Инструмент: гитара

Автор табулатуры:

Пень_Цветущий; penb@mail.ru; http://gtp.hobi.ru

04.07.2002



Примечание: Специальная благодарность Vladimir Mamonov, mvgvm@newmail.ru

        

       1 2 3 4 5 6

Строй: E B G D A E



Размер: 3/4

Темп: 109 bpm



Вступление:

|--------5--5-5-5-5-|--5--5-5-5-5-5--5-5-5-5-|--5--5-5-5-5-5--5-5-5-5-|--5--5-5-5-5-5--5-5-5-5-|

|--------6--6-6-6-6-|--6--6-6-6-6-6--6-6-6-6-|--6--6-6-6-6-6--6-6-6-6-|--6--6-6-6-6-6--6-6-6-6-|

|--------7--7-7-7-7-|--7--7-7-7-7-7--7-7-7-7-|--7--7-7-7-7-7--7-7-7-7-|--7--7-7-7-7-7--7-7-7-7-|

|-------------------|------------------------|------------------------|------------------------|

|-------------------|------------------------|------------------------|------------------------|

|-------------------|------------------------|------------------------|------------------------|





Куплет:

|--5--5-5-5-5-5--5-5-5-5-|--5--5-5-5-5-5--5-5-5-5-|--3--3-3-3-3-3--3-3-3-3-|--3--3-3-3-3-3--3-3-3-3-|

|--6--6-6-6-6-6--6-6-6-6-|--6--6-6-6-6-6--6-6-6-6-|--5--5-5-5-5-5--5-5-5-5-|--5h-6-6-6-6-6--5-5-5-5-|

|--7--7-7-7-7-7--7-7-7-7-|--7--7-7-7-7-7--7-7-7-7-|--5--5-5-5-5-5--5-5-5-5-|--5--5-5-5-5-5--5-5-5-5-|

|------------------------|------------------------|------------------------|------------------------|

|------------------------|------------------------|------------------------|------------------------|

|------------------------|------------------------|------------------------|------------------------|







|--3--3-3-3-3-3--3-3-3-3-|--3--3-3-3-3-3--3-3-3-3-|--5--5-5-5-5-5--5-5-5-5-|--5--5-5-5-5-5--5-5-5-5-|

|--3--3-3-3-3-3--3-3-3-3-|--3--3-3-3-3-3--3-3-3-3-|--6--6-6-6-6-6--6-6-6-6-|--6--6-6-6-6-6--6-6-6-6-|

|--0--0-0-0-0-0--0-0-0-0-|--0--0-0-0-0-0--0-0-0-0-|--7--7-7-7-7-7--7-7-7-7-|--7--7-7-7-7-7--7-7-7-7-|

|------------------------|------------------------|------------------------|------------------------|

|------------------------|------------------------|------------------------|------------------------|

|------------------------|------------------------|------------------------|------------------------|





Припев (акустическая гитара):

|--1--1-1-1-1-1--1-1-1-1-|--1--1-1-1-1-1--1-1-1-1-|--3--3-3-3-3-3--3-3-3-3-|--3--3-3-3-3-3--3-3-3-3-|

|--3--3-3-3-3-3--3-3-3-3-|--3--3-3-3-3-3--3-3-3-3-|--3--3-3-3-3-3--3-3-3-3-|--3--3-3-3-3-3--3-3-3-3-|

|--3--3-3-3-3-3--3-3-3-3-|--3--3-3-3-3-3--3-3-3-3-|--5--5-5-5-5-5--5-5-5-5-|--5--5-5-5-5-5--5-5-5-5-|

|------------------------|------------------------|------------------------|------------------------|

|------------------------|------------------------|------------------------|------------------------|

|------------------------|------------------------|------------------------|------------------------|







Припев (электрическая гитара)):

|---------------|---------------|---------------|

|---------------|---------------|---------------|

|--3------------|--3------------|--5------------|

|--3------------|--3------------|--5------------|

|--1------------|--1------------|--3------------|

|---------------|---------------|---------------|





Припев:

|----------------------|-----------------|---------------|---------------|------------------|

|----------------------|-----------------|---------------|---------------|------------------|

|----2--2-2--2---------|--3--------------|--3------------|--5------------|------------2-----|

|--5-0--0-0--0-5--5-5--|--3----------3-3-|--3------------|--5------------|--------5-5-0--5--|

|--3-----------3--3-3--|--1----------1-1-|--1------------|--3------------|--------3-3----3--|

|----------------------|-----------------|---------------|---------------|------------------|







|----------------------|---------------------|----------------|----------------|

|--3------3--3------3--|--3------3-----------|----------------|----------------|

|--2--2-2-2--2--2-2-2--|--2--2-2-2--2--3--2--|--3-------------|--2-------------|

|--0--0-0-0--0--0-0-0--|--0--0-0-0--2--3-----|--3------2------|--2------2------|

|----------------------|---------------------|--1------0------|---------0------|

|----------------------|---------------------|----------------|----------------|







|----------------------|---------------------|----------------|-------------------|

|--3------3--3------3--|--3------3-----------|----------------|-------------------|

|--2--2-2-2--2--2-2-2--|--2--2-2-2--2--3--2--|--3-------------|--2----------2-----|

|--0--0-0-0--0--0-0-0--|--0--0-0-0--2--3-----|--3------2------|--2------5-5-0--5--|

|----------------------|---------------------|--1------0------|---------3-3----3--|

|----------------------|---------------------|----------------|-------------------|







|----------------------|---------------------|----------------|----------------|

|--3------3--3------3--|--3------3-----------|----------------|----------------|

|--2--2-2-2--2--2-2-2--|--2--2-2-2--2--3--2--|--3-------------|--2-------------|

|--0--0-0-0--0--0-0-0--|--0--0-0-0--2--3-----|--3------2------|--2------2------|

|----------------------|---------------------|--1------0------|---------0------|

|----------------------|---------------------|----------------|----------------|







|----------------------|---------------------|----------------|---------------|--------------|

|--3------3--3------3--|--3------3-----------|----------------|---------------|--------------|

|--2--2-2-2--2--2-2-2--|--2--2-2-2--2--3--2--|--3-------------|--2------------|--------------|

|--0--0-0-0--0--0-0-0--|--0--0-0-0--2--3-----|--3------2------|--2------------|--------------|

|----------------------|---------------------|---------0------|---------------|--------------|

|----------------------|---------------------|----------------|---------------|--------------|





Сопровождение соло:

|--------------------|

|--------------------|

|--2--2--2--2--2--2--|

|--0--0--0--0--0--0--|

|--------------------|

Продолжаем грести бабос на ботах в Telegram.
Только в этот раз есть вариант автоматизировать это дело, привлекая рефералов. Вы можете заработать если »

|--------------------| |--------------------|---------------|--------------|--------------------|--------------------| |--------------------|---------------|--------------|--3--3--3--3--3--3--|--3--3--3--3--3--3--| |--2--2--2--2--2--2--|---------------|--------------|--0--0--0--0--0--0--|--0--0--0--0--0--0--| |--0--0--0--0--0--0--|--3------------|--------------|--------------------|--------------------| |--------------------|--1------------|--------------|--------------------|--------------------| |--------------------|---------------|--------------|--------------------|--------------------| |---------------|--------------|--------------------|--------------------|---------------| |---------------|--------------|--------------------|--------------------|---------------| |--2------------|--------------|--2--2--2--2--2--2--|--2--2--2--2--2--2--|---------------| |--0------------|--------------|--0--0--0--0--0--0--|--0--0--0--0--0--0--|--3------------| |---------------|--------------|--------------------|--------------------|--1------------| |---------------|--------------|--------------------|--------------------|---------------| |--------------|--------------------|--------------------|---------------|--------------| |--------------|--3--3--3--3--3--3--|--3--3--3--3--3--3--|---------------|--------------| |--------------|--0--0--0--0--0--0--|--0--0--0--0--0--0--|--2------------|--------------| |--------------|--------------------|--------------------|--0------------|--------------| |--------------|--------------------|--------------------|---------------|--------------| |--------------|--------------------|--------------------|---------------|--------------| |----------------|----------------|----------------|----------------|------------------| |----------------|----------------|----------------|----------------|--3------3----3-3-| |--2------2------|--2------2------|----------------|----------------|--0------0----0-0-| |--0------0------|--0------0------|--3------3------|--3------3------|------------------| |----------------|----------------|--1------1------|--1------1------|------------------| |----------------|----------------|----------------|----------------|------------------| |----------------|---------------| |--3------3------|---------------| |--0------0------|--2------------| |----------------|--0------------| |----------------|---------------| |----------------|---------------| Соло: |----------------|----------------|----------------| |--3------3------|--3------3------|---------3------| |----------------|----------------|--3-------------| |----------------|----------------|----------------| |----------------|----------------|----------------| |----------------|----------------|----------------| |--1------------|--3-1---------3-1---------|--3-1---------------3--|-----------------0-1-3-| |---------------|------3-1---------3-1-----|------3-1--------3-----|--1------------3-------| |---------------|----------3-2---------3-2-|----------3-2-3--------|----2------------------| |---------------|--------------------------|-----------------------|------0----------------| |---------------|--------------------------|-----------------------|-----------------------| |---------------|--------------------------|-----------------------|-----------------------| |--5------0-1-3-6--5----|----------------|----------------|----------------|----------------| |-------3---------------|--3------3------|--3------3------|---------3------|---------3------| |-----------------------|----------------|----------------|--3-------------|--3-------------| |-----------------------|----------------|----------------|----------------|----------------| |-----------------------|----------------|----------------|----------------|----------------| |-----------------------|----------------|----------------|----------------|----------------| |--3-1---------3-1---------|--3-1---------------3--|-----------------| |------3-1---------3-1-----|------3-1--------3-----|--1--------------| |----------3-2---------3-2-|----------3-2-3--------|----2------------| |--------------------------|-----------------------|------0----------| |--------------------------|-----------------------|-----------------| |--------------------------|-----------------------|-----------------| |--10-8-8---------------------------------------------------|--10-------------|----------------| |---------10-10-8-8-----------------------------------------|-----------------|--6-------------| |-------------------10-10-9-9-7-7---------------------------|----------7------|---------7------| |---------------------------------10-10-7-7-----------------|-----------------|----------------| |-------------------------------------------10-10-8-8-7-7-0-|-----------------|----------------| |-----------------------------------------------------------|-----------------|----------------| |--6-------------|---------------6--|--10-------------|--6------10------|--10------------| |----------------|--6---------6-----|----------8------|-----------------|----------------| |---------7------|---------7--------|-----------------|-----------------|----------------| |----------------|------------------|-----------------|-----------------|----------------| |----------------|------------------|-----------------|-----------------|----------------| |----------------|------------------|-----------------|-----------------|----------------| Последний аккорд: |--5-----------------| |----6---------------| |------7-------------| |--0-----7-----------| |--------------------| |--------------------|

лекарство в аптеке
список лекарств

ААШв-10 3х95 цена

В продаже - аашву, цены ниже! Неликвидные остатки

cabel-info.ru








О сайтеАккордыХит-парадПоискУроки ФорумыИщу песню
ПрограммыСвежачок-сПодпискаСтатьи
Яндекс.Метрика