Табулатура Rammstein | Links 2-3-4 гитара табулатуры уроки тексты песен Rammstein текст lyrics песня аккорды песни ноты нота электрогитара струна  
   А Б В Г Д Е Ж З И К Л М Н О П Р С Т У Ф Х Ч Ш Ы Э Ю Я       Разные песни
1-9 A B C D E F G H I J K L M N O P Q R S T U V W Y Z      Все исполнители in english

    



группа Rammstein, Табулатура песни Links 2-3-4

Группа: Rammstein - другие аккорды (48),   о группе (7 статей),   диски (19),   фотографии (23)
Табулатура песни: Links 2-3-4
Просмотров: 5116
Подобрал: Гитарист (jury_kol@mail.ru)




    


   Вот главный рифф (далее:рифф 1):



||---------------------------|---------------------------|

||---------------------------|---------------------------|

||*--------------------------|--------------------------*|

||*--------2-----------2-----|--------2------5/-7----8--*|

||---------2-----------2-----|--------2------5/-7----8---|

||---0--0--0--0--0--0--0--0--|--0--0--0--0-0-3/-5----6---|

 

  В некоторых местах он играется вот так:  

                                                   

||--------------------------|----------------------------|

||--------------------------|----------------------------|

||--------------------------|----------------------------|

||--------2-----------2-----|--------2------5-8-8--8--8--|

||--------2-----------2-----|--------2------5-8-8--8--8--|

||--0--0--0--0--0--0--0--0--|--0--0--0--0-0-3-6-6--6--6--|

 

  Басуха для риффа 1



||---------------------------|---------------------------|

||---------------------------|---------------------------|

||---------------------------|---------------------------|

||---0--0--0--0--0--0--0--0--|--0--0--0--0-0-3/-5----6---|

                             

  Рифф 2( пока не переставая поёт links 2 3 4):

                                                                   

||--------------------|-------------------|

||--------------------|-------------------|

||*-------------------|-------------------|

||*--2----------------|--5----------------|

||---2----------------|--5----------------|

||---0----------------|--3----------------|



-------------------|------------------------|

-------------------|------------------------|

-------------------|-----------------------*|

--7----------------|-----------------------*|

--7----------------|------------------------|

--5----------------|----------5-5-5-5-6-----|

 

   Бас для риффа 2:

||--------------------|-------------------|

||--------------------|-------------------|

||--------------------|-------------------|

||---0----------------|--3----------------|



-------------------|------------------------||

-------------------|------------------------||

-------------------|------------------------||

--5----------------|----------5-5-5-5-6-----||

 



 Соляк (если  играть его в нужном ритме и со зравой примочкой,

то совсем неплохо звучит):

||------------7---------------|-10---7---------------0----|

||--7--8--10-----10--8--7--8--|---------10--8--7--8-------|

||----------------------------|---------------------------|

||----------------------------|---------------------------|

||----------------------------|---------------------------|

||----------------------------|---------------------------|



Продолжаем грести бабос на ботах в Telegram.
Только в этот раз есть вариант автоматизировать это дело, привлекая рефералов. Вы можете заработать если »

------------7---------------|------7---------------7----| --7--8--10-----10--8--7--8--|--10-----10--8--7--8-------| ----------------------------|---------------------------| ----------------------------|---------------------------| ----------------------------|---------------------------| ----------------------------|---------------------------| ------------7---------------|------7---------------0----| --7--8--10-----10--8--7--8--|--10-----10--8--7--8-------| ----------------------------|---------------------------| ----------------------------|---------------------------| ----------------------------|---------------------------| ----------------------------|---------------------------| ------------7---------------|------7---------------7----|| --7--8--10-----10--8--7--8--|--10-----10--8--7--8-------|| ----------------------------|---------------------------|| ----------------------------|---------------------------|| ----------------------------|---------------------------|| ----------------------------|---------------------------|| Текст для тех, кто умеет петь по-немецки: Kann man Herzen brechen konnen Herzen sprechen kann man Herzen qualen kann man Herzen stehlen Sie wollen mein Herz am rechten Fleck doch seh ich dann nach unten weg da schlagt es links Konnen Herzen singen kann ein Herz zerspringen konnen Herzen rein sein kann ein Herz aus Stein sein Sie wollen mein Herz am rechten Fleck doch seh ich dann nach unten weg da schlagt es links 2 3 4








О сайтеАккордыХит-парадПоискУроки ФорумыИщу песню
ПрограммыСвежачок-сПодпискаСтатьи
Яндекс.Метрика