Басовая табулатура Rammstein | Seemann гитара табулатуры уроки тексты песен Rammstein текст lyrics песня аккорды песни ноты нота электрогитара струна  
   А Б В Г Д Е Ж З И К Л М Н О П Р С Т У Ф Х Ч Ш Ы Э Ю Я       Разные песни
1-9 A B C D E F G H I J K L M N O P Q R S T U V W Y Z      Все исполнители in english

    



группа Rammstein, Басовая табулатура песни Seemann

Группа: Rammstein - другие аккорды (48),   о группе (7 статей),   диски (19),   фотографии (23)
Басовая табулатура песни: Seemann
Просмотров: 3310
Подобрал: Гитарист (jury_kol@mail.ru)




    
                                                                  

G||----------18-------------16------|---------14-------------13------|

D||*-----14------14-----14------14--|-----14------14-----14------14--|

A||*--0--------------0--------------|--0--------------0--------------|

E||---------------------------------|--------------------------------|





                                                              

---------11------------11-----|---------13------------13-----|

------9------9------9------9--|------9------9------9------9--|

--11------------11------------|--11------------11------------|

------------------------------|------------------------------|




Продолжаем грести бабос на ботах в Telegram.
Только в этот раз есть вариант автоматизировать это дело, привлекая рефералов. Вы можете заработать если »

---------14-------------13------|---------11-------------9------| -----11------11-----11------11--|-----11------11-----11-----11--| --9--------------9--------------|--9--------------9-------------| --------------------------------|-------------------------------| --------------------------------|---------------------------------|| ---------11-------------10------|---------11-------------11------*|| -----11------11-----11------11--|-----11------11-----11------11--*|| --9--------------9--------------|--9--------------9---------------||








О сайтеАккордыХит-парадПоискУроки ФорумыИщу песню
ПрограммыСвежачок-сПодпискаСтатьи
Яндекс.Метрика