Табулатура ДДТ | Метель (2) гитара табулатуры уроки тексты песен ДДТ текст lyrics песня аккорды песни ноты нота электрогитара струна  
   А Б В Г Д Е Ж З И К Л М Н О П Р С Т У Ф Х Ч Ш Ы Э Ю Я       Разные песни
1-9 A B C D E F G H I J K L M N O P Q R S T U V W Y Z      Все исполнители in english

    



группа ДДТ, Табулатура песни Метель (2)

Продолжаем грести бабос на ботах в Telegram.
Только в этот раз есть вариант автоматизировать это дело, привлекая рефералов. Вы можете заработать если »

Группа: ДДТ - другие аккорды (189),   о группе (9 статей),   диски (7),   фотографии (16)
Табулатура песни: Метель (2)
Просмотров: 7879
Подобрал: Alex P




    
A_1:

 Em        C         G             D

-------0---------------------------------2h3h2-----

-----0---------1---------0-------------3-------3---

---0---------0---------0-------------2-----------2-

-----------------5-4\\2-------------0---------------

---------2-3-----------------0-2-3-----------------

-0-------------------3-----3-----------------------

                                                                              



A_2:

 Em        C         G             D  

-------0---------------------------------2h3h2-----

-----0---------1-----------0-8-0-------3-------3---

---0---------0-----------0-------0---2-----------2-

-----------------5-4/9-9-----------0---------------

---------2-3---------------------------------------

-0-------------------------------------------------

                                                                              



C_1:

 Em          C           G           D

-----0-----|-----0-----|-----3-----|-------2h3h2-----

-------0---|-------1---|-------0---|-----3-------3---

---0-----0-|---0-----0-|---0-----0-|---2-----------2-

-----------|-----------|-----------|-0---------------

-----------|-3---------|-----------|-----------------

-0---------|-----------|-3---------|-----------------





B_1 - игра боем (Em C G D)

=====================================================

                                                                             

        Метель 

        ======

Вступление: A_1+A_2 } 2 раза



A_1

   Коронована луной

A_2

   Как начало высока

A_1

   Как победа не со мной

A_2

Продолжаем грести бабос на ботах в Telegram.
Только в этот раз есть вариант автоматизировать это дело, привлекая рефералов. Вы можете заработать если »

Как надежда нелегка (B_1) Em C G D За окном стеной мете-е-е-ель Жизнь по горло занесло Сорвало финал с петель Да поела всё тепло Припев: C_1 Играй как можешь, сыграй Закрой глаза и вернись Не пропади, но растай, Да калие поклонись Мое окно отогрей Пусти по полю весной Не доживи, но созрей Ты будешь вечно со мной Ты будешь вечно со мной B_1 Ты будешь вечно со мной е-и е-и е-а..! ...со мной..! A_1 Ищут землю фонари A_2 (и т.д.) К небу тянется свеча На снегу следы зари Крылья павшего луча Что же вьюга наливай Выпьем время натощак Я спою ты в такт пролай О затерянных вещах Припев. Осторожно, не спеша С белым ветром на груди Где у вмерзших в лед ладъи Ждет озябшая душа.

искать в аптеке
список лекарств






О сайтеАккордыХит-парадПоискУроки ФорумыИщу песню
ПрограммыСвежачок-сПодпискаСтатьи
Яндекс.Метрика