Басовая табулатура Ber-Linn | Лида гитара табулатуры уроки тексты песен Ber-Linn текст lyrics песня аккорды песни ноты нота электрогитара струна  
   А Б В Г Д Е Ж З И К Л М Н О П Р С Т У Ф Х Ч Ш Ы Э Ю Я       Разные песни
1-9 A B C D E F G H I J K L M N O P Q R S T U V W Y Z      Все исполнители

    



группа Ber-Linn, Басовая табулатура песни Лида

Группа: Ber-Linn - другие аккорды (25),   о группе (7 статей),   диски (3),   фотографии (6)
Басовая табулатура песни: Лида
Просмотров: 1353
Подобрал: Пень_Цветущий (penb@mail.ru)




    
                                     Лида - Ber Lin



Инструмент: бас

Автор табулатуры:

Пень_Цветущий; penb@mail.ru;

28.05.2002



Примечание:

        Куплет - самое место для импровизации. На записи ни фига не слышно, но там явно куча всяких слаидов и хрен знает чего еще,

        чего я тут не отобразил. Так что приложите немного фантазии - в рок\'н\'ролле это не возбраняется :)

        Do the ska!

       1 2 3 4

Строй: G D A E





Вступление:

|----------------------------------|----------------------------------|

|----------------------------------|----------------------------------|

|--3-3-3-3-3-3-3-3-3-3-3-3-3-3-3-3-|----------------------------------|

|----------------------------------|--3-3-3-3-3-3-3-3-3-3-3-3-3-3-3-3-|







|----------------------------------|----------------------------------|

|----------------------------------|----------------------------------|

|----------------------------------|----------------------------------|

|--5-5-5-5-5-5-5-5-5-5-5-5-5-5-5-5-|--1-1-1-1-1-1-1-1-1-1-1-1-1-1-1-1-|





1-й куплет:

|----------------------|----------------------|----------------------|

|----------------------|----------------------|----------------------|

|----------------------|----------------------|----------------------|

|--8----7----5----3----|--5----3----1----3----|--8----7----5----3----|







|----------------------|

|----------------------|

|----------------------|

|--5----3----1----3----|



Продолжаем грести бабос на ботах в Telegram.
Только в этот раз есть вариант автоматизировать это дело, привлекая рефералов. Вы можете заработать если »

2 и 3й куплеты: |------------------------|-----------------------| |------------------------|-----------------------| |----3--2--3-------------|------------8--8-------| |---------------3--1--3--|--5----8------------1--| |------------------------|-----------------------|------------------------| |------------------------|-----------------------|------------------5-----| |----3--2--3-------------|------------8--8-------|----3--2--3-------------| |---------------3--1--3--|--5----8------------1--|---------------3-----3--| |-------------------------|------------------------|----------------------| |-------------------5-----|------------------------|----------------------| |----------5--8--8-----3--|----3--2--3-------------|----------------------| |--5----8-----------------|---------------3--1--3--|--5----8----1----3----| Припев: |----------------------------------|----------------------------------| |----------------------------------|----------------------------------| |--3-3-3-3-3-3-3-3-----------------|----------------------------------| |------------------3-3-3-3-3-3-3-3-|--5-5-5-5-5-5-5-5-1-1-1-1-1-1-1-1-| |----------------------------------|----------------------------------| |----------------------------------|----------------------------------| |--3-3-3-3-3-3-3-3-----------------|----------------------------------| |------------------3-3-3-3-3-3-3-3-|--5-5-5-5-5-5-5-5-1-1-1-1-1-1-1-1-| Последняя нота: |-------------------| |-------------------| |--3----------------| |-------------------|








О сайтеАккордыХит-парадПоискУроки ФорумыИщу песню
ПрограммыСвежачок-сПодпискаСтатьи
Яндекс.Метрика