Аккорды Наутилус Помпилиус | Крылья гитара табулатуры уроки тексты песен Наутилус Помпилиус текст lyrics песня аккорды песни ноты нота электрогитара струна  
   А Б В Г Д Е Ж З И К Л М Н О П Р С Т У Ф Х Ч Ш Ы Э Ю Я       Разные песни
1-9 A B C D E F G H I J K L M N O P Q R S T U V W Y Z      Все исполнители

    



группа Наутилус Помпилиус, Аккорды песни Крылья

Группа: Наутилус Помпилиус - другие аккорды (113),   диски (9)
Аккорды песни: Крылья
Просмотров: 6853
Подобрал: Dave Smith (steveweb@narod.ru)




    
Наутилус Помпилиус - \"Крылья\"

Подобрал: Dave Smith (mailto: steveweb@narod.ru | http://scarlet.fire.usi.ru)



Примечание:



Старайтесь ровно выдерживать длину звуков и паузу между ними. Мелодия отлично звучит на хрошонастроенной гитаре. Если в распоряжении два
гитариста - играйте партию с соло на одной, а аккорды, показынные сверху на второй. Получится - super! Если же Вы играете на одной гитаре,
обращайте внимание на басы - они должны звучать на протяжении всей партии данного аккорды.



Обозначения:



*          - пауза, длиной в один звук

slide(5/7) - скользите пальцем по играющей струне с пятого лада до седьмого

D/D+       - на фоне аккорда D играется короткая партия аккорда D+



Аккорды:



   Em     H7    Am    H     D    D+     F



E|--0--|--2--|--0--|--2--|--2--|--3--|--1--|

H|--0--|--0--|--1--|--4--|--3--|--3--|--1--|

G|--0--|--2--|--2--|--4--|--2--|--2--|--2--|

D|--2--|--1--|--1--|--4--|--0--|--0--|--3--|

A|--2--|--2--|--0--|--2--|--0--|--0--|--3--|

E|--0--|--0--|--0--|--2--|--0--|--0--|--1--|





Вступление: 



   Em                        H7                        Am                          H   



E|-7-----5-----3-----2-----|-5-----3-----2-----2-----|-5-------------------------|-------2-*-----*--slide(5/7)--|

H|---0-----0-----0-----0---|---0-----0-----0-----0---|---5---8---8--7---7--5---5-|-----4---*-----*--------------|

G|-----0-----0-----0-----0-|-----0-----0-----0-----0-|-----5---5------5------5---|---4-----*-5-4-*--------------|

D|-------------------------|-------------------------|---------------------------|---------*-----*--------------|

A|-------------------------|-2-----------------------|---------------------------|-2-------*-----*--------------|

E|-0-----------------------|-------------------------|-5-------------------------|---------*-----*--------------|



Вступление повторяется два раза ...



Куплет можно играть так-же, как и вступление, но в этом случае четко вытягивайте каждую нотку сольных слогов. Можно и просто по аккордам,
перебором, чередуя басы аккордов.



----------------------------



Em

Ты снимаешь вечернее платье,



H7

Стоя лицом к стене.



     Am

И я вижу свежие шрамы



     H

На гладкой, как бархат, спине.



     Em

Мне хочется плакать от боли

 

H7

Или забыться во сне.

Продолжаем грести бабос на ботах в Telegram.
Только в этот раз есть вариант автоматизировать это дело, привлекая рефералов. Вы можете заработать если »

Am Где твои крылья, которые H Так нравились мне? ----------------------------- Бас аккорда играется строго в один момент со слогом, над которым написан аккорд. Припев играется жестким боем. ----------------------------- F Em Где твои крылья, C Em Которые нравились мне? D D+/D Em Где твои крылья, D D+/D Em Которые нравились мне? ----------------------------- После припева пробегитесь тихонько по струнам и начинайте играть переборам аккорды куплета. ----------------------------- Раньше у нас было время, Теперь у нас есть дела. Доказывать, что сильный жрет слабых, Доказывать, что сажа бела. Мы все потеряли что-то На этой безумной войне. Кстати, где твои крылья, Которые нравились мне? Припев ... Я не спрашиваю, сколько у тебя денег, Не спрашиваю, сколько мужей. Я вижу - ты боишься открытых окон И верхних этажей. И если завтра начнется пожар И все здание будет в огне Мы погибнем без этих крыльев, Которые нравились мне. Припев ... ----------------------------- В конце еще раз играйте вступление. Ждите море аплодисментов :) P.S. Есть какие-либо вопросы? Пишите - steveweb@narod.ru - обязательно помогу!








О сайтеАккордыХит-парадПоискУроки ФорумыИщу песню
ПрограммыСвежачок-сПодпискаСтатьи
Яндекс.Метрика