Аккорды Король и Шут | Лесник (3) гитара табулатуры уроки тексты песен Король и Шут текст lyrics песня аккорды песни ноты нота электрогитара струна  
   А Б В Г Д Е Ж З И К Л М Н О П Р С Т У Ф Х Ч Ш Ы Э Ю Я       Разные песни
1-9 A B C D E F G H I J K L M N O P Q R S T U V W Y Z      Все исполнители in english

    



группа Король и Шут, Аккорды песни Лесник (3)

Продолжаем грести бабос на ботах в Telegram.
Только в этот раз есть вариант автоматизировать это дело, привлекая рефералов. Вы можете заработать если »

Группа: Король и Шут - другие аккорды (277),   о группе (10 статей),   диски (9),   фотографии (68)
Аккорды песни: Лесник (3)
Просмотров: 3930
Подобрал: Зиц (volodia_pur@mail.ru)




    
Подобрал: Данилин владимир (Зиц)

г.Томск



mail: volodia_pur@mail.ru - Привет ПАНКам! :)

                                                   





      Am                                               F

E||--------------------------------------------------|---------------------------------------------|

     

B||--------------------------------------------------|---------------------------------------------|

     

G||--------------------------------------------------|---------------------------------------------|

     

D||------------------0--2-------------0--2--------|---------------5--3-----------------5--3---|



A||-----0--3----------------0--3------------------|-----0--3------------------0--3------------|



E||--------------------------------------------------|----------------------------------------------|











      Dm                                               G                                                

E||--------------------------------------------------|------------------------------------------------|



B||--------------------------------------------------|------------------------------------------------|



G||--------------------------------------------------|------------------------------------------------|



D||-----5--3------2--0------5--3----2--0-------|-----------------0-------------------0---------|



A||--------------------------------------------------|--------2--3----------------2--3--------------|



E||--------------------------------------------------|----3--------------------3---------------------|









  Am

Замученный дорогой,

 

 F                    Dm

Я выбился из сил.

  

  Am

И в доме лесника Я 



  F                      Dm

Ночлега попросил.



    Am

С улыбкой добродушной

 

Продолжаем грести бабос на ботах в Telegram.
Только в этот раз есть вариант автоматизировать это дело, привлекая рефералов. Вы можете заработать если »

F Dm Старик меня пустил. Am И жестом дружелюбным F Dm На ужин пригласил. (Припев) Am Будь, как дома, путник, F Я ни в чём не откажу, Dm Я ни в чём не откажу, G Я ни в чём не откажу! Am Множество историй, F Коль желаешь, расскажу, Dm Коль желаешь, расскажу, G Коль желаешь, расскажу! На улице темнело, Сидел я за столом. Лесник сидел напротив, Болтал о том, о сём. Что нет среди животных У старика врагов, Что нравиться ему Подкармливать волков. Припев. И волки среди ночи Завыли под окном. Старик заулыбался И вдруг покинл дом. Но вскоре возвратился С ружьём на перевес: \"Друзья хотят покушать, Пойдём Брат в лес!\"

поиск лекарств
список лекарств

Мужские угги фото и цена

Коллекции женской, мужской и детской одежды, обуви, аксессуаров и др

uggaustralian.kiev.ua








О сайтеАккордыХит-парадПоискУроки ФорумыИщу песню
ПрограммыСвежачок-сПодпискаСтатьи
Яндекс.Метрика