Табулатура Ария | Беспечный ангел гитара табулатуры уроки тексты песен Ария текст lyrics песня аккорды песни ноты нота электрогитара струна  
   А Б В Г Д Е Ж З И К Л М Н О П Р С Т У Ф Х Ч Ш Ы Э Ю Я       Разные песни
1-9 A B C D E F G H I J K L M N O P Q R S T U V W Y Z      Все исполнители in english

    



группа Ария, Табулатура песни Беспечный ангел

Продолжаем грести бабос на ботах в Telegram.
Только в этот раз есть вариант автоматизировать это дело, привлекая рефералов. Вы можете заработать если »

Группа: Ария - другие аккорды (629),   о группе (7 статей),   диски (18),   фотографии (92)
Табулатура песни: Беспечный ангел
Просмотров: 10194
Подобрал: Bass (d_u_b@km.ru)




    

E||----------------------|--------------------------|

B||----------------------|--------------0-----------|

G||----------------------|-----------0-----0--------|

D||-------------------0--|--------2-----------2-----|

A||-------------0--2-----|-----2-----------------2--|

E||----------3-----------|--0-----------------------|





                                                      

--------------------------|--------------------------|

-----------1--------------|-----------3--------------|

--------0--------0-----0--|--------0--------0-----0--|

-----2--------2-----2-----|-----0--------0-----0-----|

--3-----------------------|--------------------------|

--------------------------|--3-----------------------|





                                                      

--------------------------|--------------------------|

-----------3--------------|--------------0-----------|

--------0-----------------|-----------0-----0--------|

-----0-----------------0--|--------2-----------2-----|

-----------------0--2-----|-----2-----------------2--|

--3-----------3-----------|--0-----------------------|





                                                      

Продолжаем грести бабос на ботах в Telegram.
Только в этот раз есть вариант автоматизировать это дело, привлекая рефералов. Вы можете заработать если »

--------------------------|--------------3-----------| -----------1--------------|-----------3-----3--------| --------0--------0-----0--|--------0-----------0-----| -----2--------2-----2-----|-----0-----------------2--| --3-----------------------|--------------------------| --------------------------|--3-----------------------| -------------------|| -------------------|| -------------------|| -------------------|| -------------------|| --3----------------|| Куплеты играть по аккордам в том же духе _ _ / `-\' ( pp D[ D D IIIIIIIIIIIIII[::} \\_.-._( bb ############################################################################# #### transcribed by YAROSLAV (BASS) DUBENDKY, the bass man of STORM ##### #### comments/other versions of this song/corrections to: ##### #### d_u_b@km.ru dub_os@rambler.ru ##### #############################################################################

найти лекарство
список лекарств






О сайтеАккордыХит-парадПоискУроки ФорумыИщу песню
ПрограммыСвежачок-сПодпискаСтатьи
Яндекс.Метрика