Табулатура Чайф | Родная, не плачь гитара табулатуры уроки тексты песен Чайф текст lyrics песня аккорды песни ноты нота электрогитара струна  
   А Б В Г Д Е Ж З И К Л М Н О П Р С Т У Ф Х Ч Ш Ы Э Ю Я       Разные песни
1-9 A B C D E F G H I J K L M N O P Q R S T U V W Y Z      Все исполнители in english

    



группа Чайф, Табулатура песни Родная, не плачь

Продолжаем грести бабос на ботах в Telegram.
Только в этот раз есть вариант автоматизировать это дело, привлекая рефералов. Вы можете заработать если »

Группа: Чайф - другие аккорды (161),   о группе (2 статей),   диски (19),   фотографии (10)
Табулатура песни: Родная, не плачь
Просмотров: 1917
Подобрал: Veselov Stanislav (veselov_stas@mail.ru)




    

           tabbed by Veselov Stanislav



 Tempo: 168 bpm;

 Measure: 4/4;



   intro                                                                    

 E||---------|---------|---------|---------|-----------|---------|

 B||---------|---------|---------|---------|---1-------|---------|

 G||---------|-----0---|-----0---|-----0-2-|-----2-----|-----0---|

 D||-------0-|---2-----|---2-----|---2-----|-------0h2-|---2---2-|

 A||---0-2---|-3-----3-|-2-----2-|-0-------|-----------|-3-------|

 E||-3-------|---------|---------|---------|-----------|---------|





 E||-1-0-----|---------|---------|---------|---------|---------|

 B||-1-1-3-1-|---------|---------|---------|---------|---------|

 G||-----0-0-|-----0---|---------|-----0---|-----0---|-----0---|

 D||-------2-|---2-----|-------0-|---2-----|---2-----|---2---2-|

 A||-------3-|-------3-|---0-2---|-3-----3-|-2-----3-|-0-------|

 E||---------|---------|-3-------|---------|---------|---------|

                 

                  

 E||---------|-----0---|-1-0-----|---------|---------||

 B||-----1---|-----1---|-1-1-3-1-|---------|---------||

 G||---2---2-|-----0---|-----0-0-|-----0---|---------||

 D||-3-------|-----2---|-------2-|---2-----|-------0-||

 A||---------|-3---3---|-------3-|-------3-|---0-2---||

 E||---------|---------|---------|---------|-3-------||





 Куплет



 E||---------|---------|---------|---------||

 B||---------|---------|---------|-----1---||

 G||-----0---|-----0---|-----0---|---2---2-||

 D||---2-----|---2-----|---2---2-|-3-------||

 A||-3-----3-|-2-----3-|-0-------|---------||

 E||---------|---------|---------|---------||



     Hет, не так yж плохо все y нас,   

     Есть еще в дyше надежда.          

     Я еще yвижy глyбинy небесных глаз,

     Я еще спою, как пpежде -          

   



 Припев

   

 ---------|---------|---------|---------|-----0---|-1-0-----|---------|---------

 ---------|---------|---------|-----1---|-----1---|-1-1-3-1-|---------|---------

 -----0---|-----0---|-----0---|---2---2-|-----0---|-----0-0-|-----0---|---------

 ---2-----|---2-----|---2---2-|-3-------|-----2---|-------2-|---2-----|-------0-

 -3-----3-|-2-----3-|-0-------|---------|-3---3---|-------3-|-------3-|---0-2---

 ---------|---------|---------|---------|---------|---------|---------|-3-------

  Родная, не плачь,                          Родная, не лачь...                  

Продолжаем грести бабос на ботах в Telegram.
Только в этот раз есть вариант автоматизировать это дело, привлекая рефералов. Вы можете заработать если »

Моя pодная, не плачь, Ты слышишь, pодная, не плачь... А ты помнишь, лес нас прятал в тень Долгий век считала нам кукушка Это был последний летний день Я шепнул тебе на ушко Родная, не плачь Родная, не плачь Моя родная, не плачь Ты слышишь, родная, не плачь Пели песни под окном коты, А по радио Боб Марли В лунном свете танцевала ты Помню, что тогда сказал я Будет все у нас хорошо Будет все у нас хорошо Будет все у нас хорошо Будет все у нас хорошо Будет все у нас хорошо Будет все у нас хорошо Будет все у нас хорошо Будет все у нас хорошо Родная, не плачь Родная, не плачь Моя родная, не плачь Ты слышишь, родная, не плачь Будет все у нас хорошо Будет все у нас хорошо Будет все у нас хорошо Будет все у нас хорошо Будет все у нас хорошо Будет все у нас хорошо Будет все у нас хорошо Будет все у нас хорошо No woman, no cry No woman, no cry No woman, no cry No woman, no cry Собственно, все. Я сам отыгрываю вступление, куплеты играю C-G-Am-F вольным перебором, припев по указанным табам. Если играть все правильно, то получается однообразно.

найти лекарство
список лекарств






О сайтеАккордыХит-парадПоискУроки ФорумыИщу песню
ПрограммыСвежачок-сПодпискаСтатьи
Яндекс.Метрика