Табулатура Nofx | Theme From A Nofx Albom гитара табулатуры уроки тексты песен Nofx текст lyrics песня аккорды песни ноты нота электрогитара струна  
   А Б В Г Д Е Ж З И К Л М Н О П Р С Т У Ф Х Ч Ш Ы Э Ю Я       Разные песни
1-9 A B C D E F G H I J K L M N O P Q R S T U V W Y Z      Все исполнители in english

    



группа Nofx, Табулатура песни Theme From A Nofx Albom

Работа в Европе для граждан РФ, Украины, СНГ

  • минимальная зарплата $500.
  • виза и контракт на полгода, возможно продление
  • проживание оплачивает работодатель
  • нужен только загранпаспорт
  • оформление 190 €
  • данное предложение - отличная возможность эмигрировать в Европу и закрепиться здесь навсегда.

  • Мы свяжемся с Вами по WhatsApp или Viber и ответим на любые вопросы.
    на нашем сайте можно почитать подробнее »

    Группа: Nofx - другие аккорды (72),   диски (12),   фотографии (1)
    Табулатура песни: Theme From A Nofx Albom
    Просмотров: 1568
    Прислал: zay




        
    THEME FROM A NOFX ALBUM by hmmm... NOFX! Album : Pump Up the Valuum (2000)1/2
    
    NOFX paints the town red!
    
    A=Melvin   B=EL Hefe   A&B=both
    
    :
    
    # chorus #A&B   *=play 8X palm-muted                               
    
    E---------------------------------------------------------------|
    
    B---------------------------------------------------------------|
    
    G----*-------*-------*-------*-------*-------*-------*-------*--|
    
    D---7-------7-------7-------7-------9-------9-------9-------7---|
    
    A---7-------7-------5-------5-------7-------7-------7-------7---|
    
    E---5-------5-------5-------5-------7-------7-------7-------5---|
    
    :
    
    # chorus2 #A&B  *=play 8X palm-muted   #=play 4X palm-muted <<<=pick-slide
    
    E---------------------------------------------------------------|
    
    B---------------------------------------------------------------|
    
    G----*-------*-------*-------*-------*-------*-------#----------|
    
    D---7-------7-------7-------7-------9-------9-------9-----------|
    
    A---7-------7-------5-------5-------7-------7-------7--/7---<<<-|
    
    E---5-------5-------5-------5-------7-------7-------7-------<<<-|
    
    :                            
    
    # solo #A   <<<=pick-slide    b=bend-up to next note   h=hammer-on          
    
    E--/-3X--\\-----------/-2X--\\-----------/--3X-\\----------------------------->
    
    B-------10------10h13-----10------10h13-----10----------------------------->
    
    G--12b14---12b14-----12b14---12b14-----12b14---12b14---9-9-9121212-9-9-9-7->
    
    D------------------------------------------------------------------------0->
    
    A-------------------------------------------------------------------------->
    
    E--|-----|-----------|-----|-----------|-----|----------------------------->
    
    # main #B   !not same scale!   *=play 8X
    
    E---------------------------------------------------------------|
    
    B--------------------*-------*-------*-------*-------*----------|
    
    G----*-------*------7-------7-------9-------9-------9--------*--|
    
    D---7-------7-------7-------7-------9-------9-------9-------7---|
    
    A---7-------7-------5-------5-------7-------7-------7-------7---|
    
    E---5-------5-------5-------5-------7-------7-------7-------5---|
    
    >soloA
    
    >-------------------------------|
    
    >-------------------------------|
    
    >---9-9-9-9-7-7-7-5-5-5---------|
    
    >-----------------------7-------|
    
    >---------------------------<<<-|
    
    >---------------------------<<<-|
    
    :                                                  
    
    # solo2 #B  !A plays mainB! m=palm-mute b=bend-up to next note p=pull-off    >                       
    
    E---------------------------------------------------------------------------->
    
    B-------------------------------------------------17b19171615-15-1313----13-->
    
    G--------------------------------------------------------------------1412--14>
    
    D---10/1110/1110/1110/11-9-7---7-----7-----7--------------------------------->
    
    A---11/1211/1211/1211/12---------9-7---9-7---9------------------------------->
    
    E--------------------------------m-m---m-m----------------------------------->
    
    
    Узнай ВСЕ о своем друге в ВК или FB
    >solo2B <<<=pick-slide >-----------------------------| >---8-------------------------| >----9p79p7\\5-7-5-------------| >-----------------7-5-7-------| >-------------------------<<<-| >-------------------------<<<-| : (My name is Fat Mike...) # verse #A !B plays mainB! *=play 8X palm-muted b=bend up to next note E---------------------------------------------------------------17--------| B--------------------*-------*-------*-------*-------*-----20b22--20b22---| G----*-------*------7-------7-------9-------9-------9------|-----|--------| D---7-------7-------7-------7-------9-------9-------9------\\-2X--/--------| A---7-------7-------5-------5-------7-------7-------7---------------------| E---5-------5-------5-------5-------7-------7-------7---------------------| : Then play A&BmainBX3. >>>>>>>>>to next page... : THEME FROM A NOFX ALBUM 2/2 : # bridge #A b=bend-up to next note r=release bend p=pull-off E---------------------------------------------------------------------------| B-------------------------------------------------------17------------------| G-------------------7---------------9--------------16b17--16b17r-p14--14----| D---7---------------7---------------9-------------------------------16------| A---7---------------5---------------7--------------|-----||----------------|| E---5---------------5---------------7--------------\\-4X--/\\-----2X---------/| # bridge #B b=bend-up to next note r=release bend p=pull-off E---------------------------------------------------------| B---------------------------------------------------------| G-------------------7---------------9---------------9-----| D---7---------------7---------------9---------------9-----| A---7---------------5---------------7---------------7-----| E---5---------------5---------------7---------------7-----| : Then play AmainB (!what\'s left of it!) or BmainB and A&BmainBX2. : # outro-chorus #A&B (Throw me...) E-----------------------------------------------------------------------| B--------------------*-------*-----------------------*-------*----------| G----*-------*------7-------7--------*-------*------9-------9-----------| D---7-------7-------7-------7-------2-------2-------9-------9-------7---| A---7-------7-------5-------5-------2-------2-------7-------7-------7---| E---5-------5-------5-------5-------0-------0-----------------------5---| : Great band I must say... Tabbed by Jussi Heinonen 04.10.2000.

    поиск лекарств
    список лекарств






    О сайтеАккордыХит-парадПоискУроки ФорумыИщу песню
    ПрограммыСвежачок-сПодпискаСтатьи
    Яндекс.Метрика