Басовая табулатура Nightwish | Walking In The Air гитара табулатуры уроки тексты песен Nightwish текст lyrics песня аккорды песни ноты нота электрогитара струна  
   А Б В Г Д Е Ж З И К Л М Н О П Р С Т У Ф Х Ч Ш Ы Э Ю Я       Разные песни
1-9 A B C D E F G H I J K L M N O P Q R S T U V W Y Z      Все исполнители in english

    



группа Nightwish, Басовая табулатура песни Walking In The Air

Продолжаем грести бабос на ботах в Telegram.
Только в этот раз есть вариант автоматизировать это дело, привлекая рефералов. Вы можете заработать если »

Группа: Nightwish - другие аккорды (414),   о группе (12 статей),   диски (6),   фотографии (25)
Басовая табулатура песни: Walking In The Air
Просмотров: 2193
Подобрал: Locksmith (locksmith@yandex.ru)




    
Ориентируйтесь по тактам                                                                               

G||------------------|------------------|------------------|------------------|

D||------------------|------------------|------------------|------------------|

A||------------------|------------------|------------------|------------------|

E||------------------|------------------|------------------|------------------|





                                                                            

------------------|------------------|------------------|------------------|

------------------|------------------|------------------|------------------|

------------------|------------------|------------------|------------------|

------------------|------------------|------------------|------------------|





                                                                            

------------------|------------------|------------------|------------------|

------------------|------------------|------------------|------------------|

------------------|------------------|------------------|------------------|

------------------|------------------|------------------|------------------|





                                                                            

------------------|------------------|------------------|------------------|

------------------|------------------|------------------|------------------|

------------------|------------------|------------------|------------------|

------------------|------------------|------------------|------------------|





                                                                            

------------------|------------------|------------------|------------------|

------------------|------------------|------------------|------------------|

------------------|------------------|------------------|------------------|

------------------|------------------|------------------|------------------|





                                                                            

------------------|------------------|------------------|------------------|

------------------|------------------|------------------|------------------|

------------------|------------------|------------------|------------------|

------------------|------------------|------------------|------------------|





                                                                            

------------------|------------------|------------------|------------------|

------------------|------------------|------------------|------------------|

------------------|------------------|------------------|------------------|

------------------|------------------|------------------|------------------|





                                                                             

------------------|------------------|-------------------|------------------|

------------------|------------------|--0----------------|------------------|

------------------|------------------|-------------------|------------------|

------------------|------------------|-------------------|------------------|





                                                              

--------------------|-------------------|--------------------|

--0--------------0--|--0----------------|--0--------------0--|

--------------------|-------------------|--------------------|

--------------------|-------------------|--------------------|





                                                              

--------------------|-------------------|--------------------|

--------------------|-------------------|--------------------|

--3--------------3--|--3----------------|--------------------|

--------------------|-------------------|--3--------------3--|





                                                              

--------------------|--------------------|-------------------|

--------------------|--0--------------0--|--0----------------|

--1--------3--------|--------------------|-------------------|

--------------------|--------------------|-------------------|





                                                                                

--2----------------|-------------------|--0----------------|-------------------|

-------------------|--3----------------|-------------------|-------------------|

-------------------|-------------------|-------------------|--3----------------|

-------------------|-------------------|-------------------|-------------------|





                                                                                

--0----------------|--5----------------|--3----------------|--2----------------|

-------------------|-------------------|-------------------|-------------------|

-------------------|-------------------|-------------------|-------------------|

-------------------|-------------------|-------------------|-------------------|





                                                              

--------------------|-------------------|--------------------|

--0--------------0--|--0----------------|--0--------------0--|

--------------------|-------------------|--------------------|

--------------------|-------------------|--------------------|





                                                              

--------------------|-------------------|--------------------|

--------------------|-------------------|--------------------|

--3--------------3--|--3----------------|--------------------|

--------------------|-------------------|--3--------------3--|





                                                              

--------------------|--------------------|-------------------|

--------------------|--0--------------0--|--0----------------|

--1--------3--------|--------------------|-------------------|

--------------------|--------------------|-------------------|





                                                                                

-------------------|-------------------|-------------------|-------------------|

--0----------------|-------------------|--0----------------|-------------------|

-------------------|--3----------------|-------------------|--3----------------|

-------------------|-------------------|-------------------|-------------------|





                                                                               

-------------------|-------------------|-------------------|------------------|

-------------------|-------------------|-------------------|------------------|

--1----------------|-------------------|-------------------|------------------|

-------------------|--3----------------|--1----------------|------------------|





                                                                                

--2----------------|-------------------|--0----------------|-------------------|

-------------------|--3----------------|-------------------|-------------------|

-------------------|-------------------|-------------------|--3----------------|

-------------------|-------------------|-------------------|-------------------|





                                                                                

--0----------------|--5----------------|--3----------------|--2----------------|

-------------------|-------------------|-------------------|-------------------|

-------------------|-------------------|-------------------|-------------------|

-------------------|-------------------|-------------------|-------------------|





                                                            

------------------|--------------------|-------------------|

------------------|--0--------------0--|--0----------------|

------------------|--------------------|-------------------|

------------------|--------------------|-------------------|





                                                              

--------------------|--------------------|-------------------|

--0--------------0--|--------------------|-------------------|

--------------------|--3--------------3--|--3----------------|

--------------------|--------------------|-------------------|





                                                               

--------------------|--------------------|--------------------|

--------------------|--------------------|--0--------------0--|

Продолжаем грести бабос на ботах в Telegram.
Только в этот раз есть вариант автоматизировать это дело, привлекая рефералов. Вы можете заработать если »

--------------------|--1--------3--------|--------------------| --3--------------3--|--------------------|--------------------| -------------------|--------------------|-------------------| --0----------------|--0--------------0--|--0----------------| -------------------|--------------------|-------------------| -------------------|--------------------|-------------------| --------------------|--------------------|-------------------| --0--------------0--|--------------------|-------------------| --------------------|--3--------------3--|--3----------------| --------------------|--------------------|-------------------| --------------------|--------------------|--------------------| --------------------|--------------------|--0--------------0--| --------------------|--1--------3--------|--------------------| --3--------------3--|--------------------|--------------------| -------------------|------------------|------------------|------------------| --0----------------|------------------|------------------|------------------| -------------------|------------------|------------------|------------------| -------------------|------------------|------------------|------------------| ------------------|------------------|------------------|------------------| ------------------|------------------|------------------|------------------| ------------------|------------------|------------------|------------------| ------------------|------------------|------------------|------------------| ------------------|------------------|------------------|------------------| ------------------|------------------|------------------|------------------| ------------------|------------------|------------------|------------------| ------------------|------------------|------------------|------------------| ------------------|--------------------|-------------------| ------------------|--0--------------0--|--0----------------| ------------------|--------------------|-------------------| ------------------|--------------------|-------------------| --------------------|--------------------|-------------------| --0--------------0--|--------------------|-------------------| --------------------|--3--------------3--|--3----------------| --------------------|--------------------|-------------------| --------------------|--------------------|--------------------| --------------------|--------------------|--0--------------0--| --------------------|--1--------3--------|--------------------| --3--------------3--|--------------------|--------------------| -------------------|--------------------|-------------------| --0----------------|--0--------------0--|--0----------------| -------------------|--------------------|-------------------| -------------------|--------------------|-------------------| --------------------|--------------------|-------------------| --0--------------0--|--------------------|-------------------| --------------------|--3--------------3--|--3----------------| --------------------|--------------------|-------------------| --------------------|--------------------|--------------------| --------------------|--------------------|--0--------------0--| --------------------|--1--------3--------|--------------------| --3--------------3--|--------------------|--------------------| -----------7--------|------------------------------| --0-----------------|--0--0-0-0--0-0-0--0-0-0--0-0-| --------------------|------------------------------| --------------------|------------------------------| ------------------------------|------------------------------| --0--0-0-0--0-0-0--0-0-0--0-0-|--0--0-0-0--0-0-0--0-0-0--0-0-| ------------------------------|------------------------------| ------------------------------|------------------------------| ------------------------------|------------------------------| ------------------------------|------------------------------| --3--3-3-3--3-3-3--3-3-3--3-3-|--3--3-3-3--3-3-3--3-3-3--3-3-| ------------------------------|------------------------------| ------------------------------|--------------------| ------------------------------|--------------------| ------------------------------|--1--------3--------| --3--3-3-3--3-3-3--3-3-3--3-3-|--------------------| ------------------------------|------------------------------| --0--0-0-0--0-0-0--0-0-0--0-0-|--0--0-0-0--0-0-0--0-0-0--0-0-| ------------------------------|------------------------------| ------------------------------|------------------------------| ------------------------------|------------------------------| --0--0-0-0--0-0-0--0-0-0--0-0-|--0--0-0-0--0-0-0--0-0-0--0-0-| ------------------------------|------------------------------| ------------------------------|------------------------------| ------------------------------|------------------------------| ------------------------------|------------------------------| --3--3-3-3--3-3-3--3-3-3--3-3-|--3--3-3-3--3-3-3--3-3-3--3-3-| ------------------------------|------------------------------| ------------------------------|--------------------|-------------------| ------------------------------|--------------------|--0----------------| ------------------------------|--1--------3--------|-------------------| --3--3-3-3--3-3-3--3-3-3--3-3-|--------------------|-------------------| ------------------|------------------|------------------|------------------| ------------------|------------------|------------------|------------------| ------------------|------------------|------------------|------------------| ------------------|------------------|------------------|------------------| ------------------|------------------|| ------------------|------------------|| ------------------|------------------|| ------------------|------------------||

лекарство в аптеке
список лекарств






О сайтеАккордыХит-парадПоискУроки ФорумыИщу песню
ПрограммыСвежачок-сПодпискаСтатьи
Яндекс.Метрика