Табулатура Парк Горького | Две свечи гитара табулатуры уроки тексты песен Парк Горького текст lyrics песня аккорды песни ноты нота электрогитара струна  
   А Б В Г Д Е Ж З И К Л М Н О П Р С Т У Ф Х Ч Ш Ы Э Ю Я       Разные песни
1-9 A B C D E F G H I J K L M N O P Q R S T U V W Y Z      Все исполнители

    



группа Парк Горького, Табулатура песни Две свечи

Группа: Парк Горького - другие аккорды (8)
Табулатура песни: Две свечи
Просмотров: 2560
Подобрал: Laxer (vakir@rambler.ru)




    
   Вступление                                                                     



E||--0--------------3----|--0---------2---------|--0--------------3----|

B||-----------------0----|-------0---------0----|-----------------1----|

G||------------0---------|------------0---------|------------0---------|

D||-------2--------------|----------------------|-------2--------------|

A||----------------------|----------------------|--3-------------------|

E||--0-------------------|----------------------|----------------------|





                                                                     

--0---------2---------|--0--------------3----|--0---------2---------|

-------1---------1----|-----------------1----|-------1---------1----|

------------0---------|------------2---------|------------2---------|

----------------------|-------2--------------|----------------------|

----------------------|--0-------------------|----------------------|

----------------------|----------------------|----------------------|





                                                                     

--2--------------5----|--2--------------2----|--0--------------3----|

------------0----3----|-------3----3----3----|-----------------0----|

----------------------|------------4---------|------------0---------|

-------4--------------|----------------------|-------2--------------|

--2-------------------|----------------------|----------------------|

----------------------|----------------------|--0-------------------|





                                                                     

--0---------2---------|--0--------------3----|--0---------2---------|

-------0---------0----|-----------------1----|-------1---------1----|

------------0---------|------------0---------|------------0---------|

----------------------|-------2--------------|----------------------|

----------------------|--3-------------------|----------------------|

----------------------|----------------------|----------------------|





                                                                     

--0--------------3----|--0---------2---------|--2--------------5----|

-----------------1----|-------1---------1----|------------0----3----|

------------2---------|------------2---------|----------------------|

-------2--------------|----------------------|-------4--------------|

--0-------------------|----------------------|--2-------------------|

----------------------|----------------------|----------------------|





                                                                     

--2--------------2----|----------------------|----------------------|

-------3----3----3----|----------------------|--0-------------------|

------------4---------|-----------------0----|-------0---------0----|

----------------------|------------2---------|------------2---------|

----------------------|-------2--------------|----------------------|

----------------------|--0-------------------|----------------------|





                                                                     

----------------------|----------------------|----------------------|

-----------------0----|-----------------0----|----------------------|

------------0---------|------------0---------|-----------------0----|

-------2--------------|--0----4--------------|------------2---------|

--3-------------------|----------------------|-------2--------------|

----------------------|----------------------|--0-------------------|





                                                                     

----------------------|----------------------|----------------------|

--0-------------------|-----------------0----|-----------------0----|

-------0---------0----|------------0---------|------------0---------|

------------2---------|-------2--------------|--0----4--------------|

----------------------|--3-------------------|----------------------|

----------------------|----------------------|----------------------|



Первый куплет

                                                                     

----------------------|--0-------------------|----------------------|

-----------------0----|-------0---------0----|-----------------0----|

------------0---------|------------0---------|------------2---------|

-------2--------------|----------------------|-------1--------------|

----------------------|----------------------|----------------------|

--0-------------------|----------------------|--2-------------------|





                                                                     

--2-------------------|----------------------|--3-------------------|

-------0---------0----|-----------------0----|-------0---------0----|

------------2---------|------------0---------|------------0---------|

----------------------|-------0--------------|----------------------|

----------------------|----------------------|----------------------|

----------------------|--3-------------------|----------------------|





                                                                     

----------------------|--3-------------------|-----------------1----|

-----------------0----|-------0---------0----|------------3---------|

------------0---------|------------0---------|-------2--------------|

-------0--------------|----------------------|--0-------------------|

----------------------|----------------------|----------------------|

--3-------------------|----------------------|----------------------|





                                                                     

------------1---------|----------------------|--0-------------------|

-----------------3----|-----------------0----|-------0---------0----|

-------2--------------|------------1---------|------------1---------|

--0-------------------|-------2--------------|----------------------|

----------------------|----------------------|----------------------|

----------------------|--0-------------------|----------------------|





                                                                     

----------------------|--0-------------------|----------------------|

-----------------1----|-------1---------1----|-----------------1----|

------------2---------|------------2---------|------------2---------|

-------2--------------|----------------------|-------2--------------|

--0-------------------|----------------------|--0-------------------|

----------------------|----------------------|----------------------|





                                                                     

----------------------|----------------------|----------------------|

-----------------1----|----------------------|--1-------------------|

------------2---------|-----------------2----|-------2---------2----|

-------2--------------|------------3---------|------------3---------|

----------------------|-------3--------------|----------------------|

--3-------------------|--1-------------------|----------------------|





                                                                     

----------------------|--1-------------------|----------------------|

----------------------|-------1---------1----|----------------------|

-----------------2----|------------2---------|-----------------0----|

------------3---------|----------------------|------------2---------|

-------3--------------|----------------------|-------2--------------|

--1-------------------|----------------------|--0-------------------|





                                                                     

----------------------|----------------------|--0-------------------|

--0-------------------|----------------------|-------0--------------|

-------0---------0----|-----------------0----|------------0---------|

------------2---------|------------2---------|-----------------2----|

----------------------|-------2--------------|----------------------|

----------------------|--0-------------------|----------------------|





                                                                     

----------------------|----------------------|----------------------|

----------------------|--2-------------------|----------------------|

-----------------3----|-------3---------3----|-----------------3----|

------------4---------|------------4---------|------------4---------|

-------4--------------|----------------------|-------4--------------|

--2-------------------|----------------------|--2-------------------|





                                                                     

------------2---------|----------------------|--0-------------------|

--2--------------2----|-----------------1----|-------1---------1----|

-------3--------------|------------2---------|------------2---------|

----------------------|-------2--------------|----------------------|

----------------------|--0-------------------|----------------------|

----------------------|----------------------|----------------------|



                                                Второй куплет

                                                                     

----------------------|--2-------------------|----------------------|

-----------------0----|-------0---------0----|-----------------0----|

------------2---------|------------2---------|------------0---------|

-------1--------------|----------------------|-------2--------------|

--2-------------------|----------------------|----------------------|

----------------------|----------------------|--0-------------------|





                                                                     

--0-------------------|----------------------|--2-------------------|

-------0---------0----|-----------------0----|-------0---------0----|

------------0---------|------------2---------|------------2---------|

----------------------|-------1--------------|----------------------|

----------------------|----------------------|----------------------|

----------------------|--2-------------------|----------------------|





                                                                     

----------------------|--3-------------------|----------------------|

-----------------0----|-------0---------0----|-----------------0----|

------------0---------|------------0---------|------------0---------|

-------0--------------|----------------------|-------0--------------|

----------------------|----------------------|----------------------|

--3-------------------|----------------------|--3-------------------|





                                                                     

--3-------------------|-----------------1----|------------1---------|

-------0---------0----|------------3---------|-----------------3----|

------------0---------|-------2--------------|-------2--------------|

----------------------|--0-------------------|--0-------------------|

----------------------|----------------------|----------------------|

----------------------|----------------------|----------------------|





                                                                     

----------------------|--0-------------------|----------------------|

-----------------0----|-------0---------0----|-----------------1----|

------------1---------|------------1---------|------------2---------|

-------2--------------|----------------------|-------2--------------|

----------------------|----------------------|--0-------------------|

--0-------------------|----------------------|----------------------|





                                                                     

--0-------------------|----------------------|----------------------|

-------1---------1----|-----------------1----|-----------------1----|

------------2---------|------------2---------|------------2---------|

----------------------|-------2--------------|-------2--------------|

----------------------|--0-------------------|----------------------|

----------------------|----------------------|--3-------------------|





                                                                     

----------------------|----------------------|----------------------|

----------------------|--1-------------------|----------------------|

-----------------2----|-------2---------2----|-----------------2----|

------------3---------|------------3---------|------------3---------|

-------3--------------|----------------------|-------3--------------|

--1-------------------|----------------------|--1-------------------|





                                                                     

--1-------------------|----------------------|----------------------|

-------1---------1----|----------------------|--0-------------------|

------------2---------|-----------------0----|-------0---------0----|

----------------------|------------2---------|------------2---------|

----------------------|-------2--------------|----------------------|

----------------------|--0-------------------|----------------------|





                                                                     

----------------------|--0-------------------|----------------------|

----------------------|-------0--------------|----------------------|

-----------------0----|------------0---------|-----------------3----|

------------2---------|-----------------2----|------------4---------|

-------2--------------|----------------------|-------4--------------|

--0-------------------|----------------------|--2-------------------|





                                                                     

----------------------|----------------------|------------2---------|

--2-------------------|----------------------|--2--------------2----|

-------3---------3----|-----------------3----|-------3--------------|

------------4---------|------------4---------|----------------------|

----------------------|-------4--------------|----------------------|

----------------------|--2-------------------|----------------------|





                                                                     

----------------------|--0-------------------|----------------------|

-----------------1----|-------1---------1----|-----------------0----|

------------2---------|------------2---------|------------2---------|

-------2--------------|----------------------|-------1--------------|

--0-------------------|----------------------|--2-------------------|

----------------------|----------------------|----------------------|





                                                                     

--2-------------------|----------------------|--2-------------------|

-------0---------0----|-----------------0----|-------0---------0----|

------------2---------|------------2---------|------------2---------|

----------------------|-------1--------------|----------------------|

----------------------|--2-------------------|----------------------|

----------------------|----------------------|----------------------|



Припев

                                                                     

----------------------|--0-------------------|-----------------2----|

-----------------0----|-------0---------0----|------------3---------|

------------0---------|------------0---------|-------2--------------|

-------2--------------|----------------------|--0-------------------|

----------------------|----------------------|----------------------|

--0-------------------|----------------------|----------------------|





                                                                     

------------2---------|-----------------0----|-----------------0----|

-----------------3----|------------1---------|------------1---------|

-------2--------------|-------0--------------|-------0--------------|

--0-------------------|----------------------|----------------------|

----------------------|--3-------------------|--3-------------------|

----------------------|----------------------|----------------------|





                                                                     

-----------------2----|-----------------2----|----------------------|

------------3---------|------------3---------|-----------------0----|

-------2--------------|-------2--------------|------------0---------|

--0-------------------|--0-------------------|-------2--------------|

----------------------|----------------------|----------------------|

----------------------|----------------------|--0-------------------|





                                                                     

--0-------------------|-----------------2----|------------2---------|

-------0---------0----|------------3---------|-----------------3----|

------------0---------|-------2--------------|-------2--------------|

----------------------|--0-------------------|--0-------------------|

----------------------|----------------------|----------------------|

----------------------|----------------------|----------------------|





                                                                     

-----------------0----|-----------------0----|-----------------2----|

------------1---------|------------1---------|------------3---------|

-------0--------------|-------0--------------|-------2--------------|

----------------------|----------------------|--0-------------------|

--3-------------------|--3-------------------|----------------------|

----------------------|----------------------|----------------------|



                        Проигрыш

                                                                     

-----------------2----|--0--------------3----|--0---------2---------|

------------3---------|-----------------0----|-------0---------0----|

-------2--------------|------------0---------|------------0---------|

--0-------------------|-------2--------------|----------------------|

----------------------|----------------------|----------------------|

----------------------|--0-------------------|----------------------|





                                                                     

--0--------------3----|--0---------2---------|--0--------------3----|

-----------------1----|-------1---------1----|-----------------1----|

------------0---------|------------0---------|------------2---------|

-------2--------------|----------------------|-------2--------------|

--3-------------------|----------------------|--0-------------------|

----------------------|----------------------|----------------------|





Продолжаем грести бабос на ботах в Telegram.
Только в этот раз есть вариант автоматизировать это дело, привлекая рефералов. Вы можете заработать если »

--0---------2---------|--2--------------5----|--2-------------------| -------1---------1----|------------0----3----|-------3----0----3----| ------------2---------|----------------------|----------------------| ----------------------|-------4--------------|----------------------| ----------------------|--2-------------------|----------------------| ----------------------|----------------------|----------------------| --0--------------3----|--0---------2---------|--0--------------3----| -----------------0----|-------0---------0----|-----------------1----| ------------0---------|------------0---------|------------0---------| -------2--------------|----------------------|-------2--------------| ----------------------|----------------------|--3-------------------| --0-------------------|----------------------|----------------------| --0---------2---------|--0--------------3----|--0---------2---------| -------1---------1----|-----------------1----|-------1---------1----| ------------0---------|------------2---------|------------2---------| ----------------------|-------2--------------|----------------------| ----------------------|--0-------------------|----------------------| ----------------------|----------------------|----------------------| --2--------------5----|--2-------------------|----------------------| ------------0----3----|-------3----0----3----|----------------------| ----------------------|----------------------|-----------------0----| -------4--------------|----------------------|------------2---------| --2-------------------|----------------------|-------2--------------| ----------------------|----------------------|--0-------------------| ----------------------|----------------------|----------------------| --0-------------------|-----------------0----|-----------------0----| -------0---------0----|------------0---------|------------0---------| ------------2---------|-------2--------------|--0----4--------------| ----------------------|--3-------------------|----------------------| ----------------------|----------------------|----------------------| Третий куплет ----------------------|----------------------|----------------------| ----------------------|--0-------------------|-----------------0----| -----------------0----|-------0---------0----|------------0---------| ------------2---------|------------2---------|-------2--------------| -------2--------------|----------------------|--3-------------------| --0-------------------|----------------------|----------------------| ----------------------|----------------------|--0-------------------| -----------------0----|-----------------0----|-------0---------0----| ------------0---------|------------0---------|------------0---------| --0----4--------------|-------2--------------|----------------------| ----------------------|----------------------|----------------------| ----------------------|--0-------------------|----------------------| ----------------------|--2-------------------|----------------------| -----------------0----|-------0---------0----|-----------------0----| ------------2---------|------------2---------|------------0---------| -------1--------------|----------------------|-------0--------------| ----------------------|----------------------|----------------------| --2-------------------|----------------------|--3-------------------| --3-------------------|----------------------|--3-------------------| -------0---------0----|-----------------0----|-------0---------0----| ------------0---------|------------0---------|------------0---------| ----------------------|-------0--------------|----------------------| ----------------------|----------------------|----------------------| ----------------------|--3-------------------|----------------------| -----------------1----|------------1---------|----------------------| ------------3---------|-----------------3----|-----------------0----| -------2--------------|-------2--------------|------------1---------| --0-------------------|--0-------------------|-------2--------------| ----------------------|----------------------|----------------------| ----------------------|----------------------|--0-------------------| --0-------------------|----------------------|--0-------------------| -------0---------0----|-----------------1----|-------1---------1----| ------------1---------|------------2---------|------------2---------| ----------------------|-------2--------------|----------------------| ----------------------|--0-------------------|----------------------| ----------------------|----------------------|----------------------| ----------------------|----------------------|----------------------| -----------------1----|-----------------1----|----------------------| ------------2---------|------------2---------|-----------------2----| -------2--------------|-------2--------------|------------3---------| --0-------------------|----------------------|-------3--------------| ----------------------|--3-------------------|--1-------------------| ----------------------|----------------------|--1-------------------| --1-------------------|----------------------|-------1---------1----| -------2---------2----|-----------------2----|------------2---------| ------------3---------|------------3---------|----------------------| ----------------------|-------3--------------|----------------------| ----------------------|--1-------------------|----------------------| Припев ----------------------|----------------------|----------------------| ----------------------|--0-------------------|----------------------| -----------------0----|-------0---------0----|-----------------0----| ------------2---------|------------2---------|------------2---------| -------2--------------|----------------------|-------2--------------| --0-------------------|----------------------|--0-------------------| --0-------------------|----------------------|----------------------| -------0--------------|----------------------|--2-------------------| ------------0---------|-----------------3----|-------3---------3----| -----------------2----|------------4---------|------------4---------| ----------------------|-------4--------------|----------------------| ----------------------|--2-------------------|----------------------| ----------------------|------------2---------|----------------------| ----------------------|--2--------------2----|-----------------1----| -----------------3----|-------3--------------|------------2---------| ------------4---------|----------------------|-------2--------------| -------4--------------|----------------------|--0-------------------| --2-------------------|----------------------|----------------------| --0-------------------|----------------------|--2-------------------| -------1---------1----|-----------------0----|-------0---------0----| ------------2---------|------------2---------|------------2---------| ----------------------|-------1--------------|----------------------| ----------------------|--2-------------------|----------------------| ----------------------|----------------------|----------------------| ----------------------|--2-------------------|----------------------| -----------------0----|-------0---------0----|-----------------0----| ------------2---------|------------2---------|------------0---------| -------1--------------|----------------------|-------2--------------| --2-------------------|----------------------|----------------------| ----------------------|----------------------|--0-------------------| --0-------------------|-----------------2----|------------2---------| -------0---------0----|------------3---------|-----------------3----| ------------0---------|-------2--------------|-------2--------------| ----------------------|--0-------------------|--0-------------------| ----------------------|----------------------|----------------------| ----------------------|----------------------|----------------------| -----------------0----|-----------------0----|-----------------2----| ------------1---------|------------1---------|------------3---------| -------0--------------|-------0--------------|-------2--------------| ----------------------|----------------------|--0-------------------| --3-------------------|--3-------------------|----------------------| ----------------------|----------------------|----------------------| -----------------2----|----------------------|--0-------------------| ------------3---------|-----------------0----|-------0---------0----| -------2--------------|------------0---------|------------0---------| --0-------------------|-------2--------------|----------------------| ----------------------|----------------------|----------------------| ----------------------|--0-------------------|----------------------| -----------------2----|------------2---------|-----------------0----| ------------3---------|-----------------3----|------------1---------| -------2--------------|-------2--------------|-------0--------------| --0-------------------|--0-------------------|----------------------| ----------------------|----------------------|--3-------------------| ----------------------|----------------------|----------------------| -----------------0----|-----------------2----|-----------------2----| ------------1---------|------------3---------|------------3---------| -------0--------------|-------2--------------|-------2--------------| ----------------------|--0-------------------|--0-------------------| --3-------------------|----------------------|----------------------| ----------------------|----------------------|----------------------| Проигрыш --0--------------3----|--0---------2---------|--0--------------3----| -----------------0----|-------0---------0----|-----------------1----| ------------0---------|------------0---------|------------0---------| -------2--------------|----------------------|-------2--------------| ----------------------|----------------------|--3-------------------| --0-------------------|----------------------|----------------------| --0---------2---------|--0--------------3----|--0---------2---------| -------1---------1----|-----------------1----|-------1---------1----| ------------0---------|------------2---------|------------2---------| ----------------------|-------2--------------|----------------------| ----------------------|--0-------------------|----------------------| ----------------------|----------------------|----------------------| --2--------------5----|--2-------------------|--0--------------3----| ------------0----3----|-------3----0----3----|-----------------0----| ----------------------|----------------------|------------0---------| -------4--------------|----------------------|-------2--------------| --2-------------------|----------------------|----------------------| ----------------------|----------------------|--0-------------------| --0---------2---------|--0--------------3----|--0---------2---------| -------0---------0----|-----------------1----|-------1---------1----| ------------0---------|------------0---------|------------0---------| ----------------------|-------2--------------|----------------------| ----------------------|--3-------------------|----------------------| ----------------------|----------------------|----------------------| --0--------------3----|--0---------2---------|--2--------------5----| -----------------1----|-------1---------1----|------------0----3----| ------------2---------|------------2---------|----------------------| -------2--------------|----------------------|-------4--------------| --0-------------------|----------------------|--2-------------------| ----------------------|----------------------|----------------------| --2-------------------|----------------------|--0-------------------| -------3----0----3----|-----------------1----|-------1--------------| ----------------------|------------0---------|----------------------| ----------------------|-------2--------------|-----------------1----| ----------------------|--3-------------------|------------2---------| ----------------------|----------------------|----------------------| ------------2---------|----------------------|--0-------------------| -------0---------0----|-----------------1----|-------1--------------| --2-------------------|------------2---------|----------------------| ----------------------|-------2--------------|-----------------1----| ----------------------|--0-------------------|------------2---------| ----------------------|----------------------|----------------------| ------------2---------|----------------------|--0-------------------| -------0---------0----|-----------------1----|-------1--------------| --2-------------------|------------0---------|----------------------| ----------------------|-------2--------------|-----------------1----| ----------------------|--3-------------------|------------2---------| ----------------------|----------------------|----------------------| ------------2---------|----------------------|--0-------------------| -------0---------0----|-----------------1----|-------1--------------| --2-------------------|------------2---------|----------------------| ----------------------|-------2--------------|-----------------1----| ----------------------|--0-------------------|------------2---------| ----------------------|----------------------|----------------------| ------------2---------|----------------------|--0-------------------| -------0---------0----|-----------------1----|-------1--------------| --2-------------------|------------0---------|----------------------| ----------------------|-------2--------------|-----------------2----| ----------------------|--3-------------------|------------3---------| ----------------------|----------------------|----------------------| Текст песни Вступление 1. Lonelyness is my only guest Who visits me alone at night When it comes I light two candles Just the way it was And pretend the flames become your eyes 2. Emptyness is a friend I guess The shadow played upon the wall If I let the candles take me I can see your face And remember hearing someone call your name Припев My candles are crying O-o-o-o-h Мy candles are crying O-o-o-o-h They\'re crying for you They\'re waiting for you {Проигрыш} I\'m waiting for you 2. Is it you knocking at my door Or maybe just a ghostly wind How I wish that you were here Sitting by my side And you\'ll bring me back to life again tonight Припев Проигрыш








О сайтеАккордыХит-парадПоискУроки ФорумыИщу песню
ПрограммыСвежачок-сПодпискаСтатьи
Яндекс.Метрика