Басовая табулатура Король и Шут | Запрет Отца гитара табулатуры уроки тексты песен Король и Шут текст lyrics песня аккорды песни ноты нота электрогитара струна  
   А Б В Г Д Е Ж З И К Л М Н О П Р С Т У Ф Х Ч Ш Ы Э Ю Я       Разные песни
1-9 A B C D E F G H I J K L M N O P Q R S T U V W Y Z      Все исполнители in english

    



группа Король и Шут, Басовая табулатура песни Запрет Отца

Продолжаем грести бабос на ботах в Telegram.
Только в этот раз есть вариант автоматизировать это дело, привлекая рефералов. Вы можете заработать если »

Группа: Король и Шут - другие аккорды (277),   о группе (10 статей),   диски (9),   фотографии (68)
Басовая табулатура песни: Запрет Отца
Просмотров: 2802
Подобрал: Пень_Цветущий (penb@mail.ru)




    

Инструмент: бас

Автор табулатуры:

Пень_Цветущий; penb@mail.ru;

11-12.05.2002



       1 2 3 4

Строй: G D A E





Вступление:

|------------------------|--------------------------|

|------------------------|--------------------------|

|--5----5----8--5--3--5--|----5--8--5--3--3--5--5---|

|------------------------|--------------------------|





Проигрыш:

|------------------------|-------------------------|

|------------------------|-------------------------|

|--5----5--5--5--5-------|-------------------------|

|---------------------3--|----3--3--3--3--3--3--3--|







|-----------------------|-------------------------|------------------------|

|-----------------------|-------------------------|------------------------|

|--5----5----5--5-------|-------------------------|--5----5----5--5----10--|

|--------------------5--|----5--5--5--5--5--5--5--|------------------------|







|--------------------------------|-------------------------|--------------------------|

|--------------------------------|-------------------------|--------------------------|

|----10--10--10--10--10--10--10--|-------------------------|--------------------------|

|--------------------------------|--5--5--5--5--5--3----3--|--3--3--3--3--3--3--3--3--|





Куплет:

|--------------------------|--------------------------|

|--0--0--0--0--0--0--0--0--|--------------------------|

|--------------------------|--0--0--0--0--0--0--0--0--|

|--------------------------|--------------------------|







|--------------------------|--------------------------|

|--------------------------|--------------------------|

|--------------------------|--------------------------|

|--0--0--0--0--0--0--0--0--|--3--3--3--3--3--3--3--3--|





Припев:

|--------------------------|--------------------------|

|--------------------------|--------------------------|

|--------------------------|--3--3--3--3--3--3--3--3--|

|--1--1--1--1--1--1--1--1--|--------------------------|







|--------------------------|--------------------------|

Продолжаем грести бабос на ботах в Telegram.
Только в этот раз есть вариант автоматизировать это дело, привлекая рефералов. Вы можете заработать если »

|--------------------------|--------------------------| |--0--0--0--0--0--0--0--0--|--1--1--1--1--1--1--1--1--| |--------------------------|--------------------------| Соло (проигрыш на чистом звуке): |--------------------------|--------------------------| |--0--0--0--0--0--0--0--0--|--------------------------| |--------------------------|--0--0--0--0--0--0--0--0--| |--------------------------|--------------------------| |--------------------------|--------------------------| |--2--2--2--2--2--2--2--2--|--------------------------| |--------------------------|--0--0--0--0--0--0--0--0--| |--------------------------|--------------------------| |--------------------------|--------------------------| |--0--0--0--0--0--0--0--0--|--------------------------| |--------------------------|--0--0--0--0--0--0--0--0--| |--------------------------|--------------------------| |--------------------------|--------------------------| |--------------------------|--0--0--0--0--0--0--0--0--| |--------------------------|--------------------------| |--0--0--0--0--0--0--0--0--|--------------------------| Последний куплет: |-------------------|------------------|-------------------|-------------------|-------------------| |-------------------|------------------|-------------------|-------------------|-------------------| |-------------------|------------------|-------------------|--5----------------|-------------------| |--------------0----|------------------|--------------3----|-------------------|--------------5----| |-------------------|--------------------|--------------------------| |-------------------|--------------------|--------------------------| |-------------------|--------------------|--------------------------| |--0----------------|--3--------3--------|--3--3--3--3--3--3--3--3--| Конец: |--------------------------|--------------------------| |--0--0--0--0--0--0--0--0--|--------------------------| |--------------------------|--3--3--3--3--3--3--3--3--| |--------------------------|--------------------------| |--------------------------|--------------------------| |--5--5--5--5--5--5--5--5--|--7--7--7--7--7--7--7--7--| |--------------------------|--------------------------| |--------------------------|--------------------------|

найти лекарство
список лекарств






О сайтеАккордыХит-парадПоискУроки ФорумыИщу песню
ПрограммыСвежачок-сПодпискаСтатьи
Яндекс.Метрика