Табулатура Король и Шут | Запрет Отца гитара табулатуры уроки тексты песен Король и Шут текст lyrics песня аккорды песни ноты нота электрогитара струна  
   А Б В Г Д Е Ж З И К Л М Н О П Р С Т У Ф Х Ч Ш Ы Э Ю Я       Разные песни
1-9 A B C D E F G H I J K L M N O P Q R S T U V W Y Z      Все исполнители in english

    



группа Король и Шут, Табулатура песни Запрет Отца

Продолжаем грести бабос на ботах в Telegram.
Только в этот раз есть вариант автоматизировать это дело, привлекая рефералов. Вы можете заработать если »

Группа: Король и Шут - другие аккорды (277),   о группе (10 статей),   диски (9),   фотографии (68)
Табулатура песни: Запрет Отца
Просмотров: 4187
Подобрал: Пень_Цветущий (penb@mail.ru)




    
                                 Запрет Отца - Король И Шут



Инструмент: гитара.

Автор табулатуры:

Пень_Цветущий; penb@mail.ru;

11-12.05.2002



Примечание:

        Гитарист группы КиШ - один из тех гитаристов, которые любят создавать много шума довольно сложной структуры, поэтому

        табулирование его запилов есть дело творческое. Так что советую принять эту табулатуру за основу для собственных

        изысканий. Большое поле для действий тебе открывается в Соло 2 и Вступлении. Вступление играй как хочешь, главное

        соблюдай гармонию.

        Панки ХОЙ!



       1 2 3 4 5 6

Строй: E B G D A E



Обозначения:

/ - восходящий слайд

\\ - нисходящий слайд

b - бенд

r - бенд с возвратом

H - натуральный флажолет

pm - глушение ладонью

x - глушенные струны







Вступелние:

|-------------------------|--------------------------|

|-------------------------|--------------------------|

|---7----7----x--7--5--7--|----7--x--7--5--5--7--7-7-|

|---7----7----7--7--5--7--|----7--7--7--5--5--7--7-7-|

|---5----5----8--5--3--5--|----5--8--5--3--3--5--5-5-|

|-------------------------|--------------------------|





                            1й раз.                    2й и 3й раз.             

|------------------------|  |-----------------------|  |--------------------------|

|------------------------|  |----5--------------x---|  |-------x-----x-----x------|

|--7----7-------5--5--7--|  |----5----7----5----x---|  |----7--x--5--x--7--x--7-7-|

|--7----7----7--7--5--7--|  |---------7----5----7---|  |----7--x--5--x--7--x--7-7-|

|--5----5----8--5--3--5--|  |-------------------5---|  |----5--x--3--x--5--x--5-5-|

|------------------------|  |-----------------------|  |--------------------------|





4й раз.

|--------------------------------|

|--------------------------------|

|----7-7-7-7-7-7-7-7-7-7-7-7-7-7-|

|----7-7-7-7-7-7-7-7-7-7-7-7-7-7-|

|----5-5-5-5-5-5-5-5-5-5-5-5-5-5-|

|--------------------------------|





Проигрыш:

|------------------------|---------------------------|-----------------------|

|------------------------|---------------------------|-----------------------|

|------------------------|---------------------------|-----------------------|

|--7----7--7--7--7-------|---------------------------|--7----7----7--7-------|

|--5----5--5--5--5----5--|----5--5--5-5-5--5-5-5--5--|--5----5----5--5----7--|

|---------------------3--|----3--3--3-3-3--3-3-3--3--|--------------------5--|





       H  H  H  H  H  H

|-------------------------|-----------------------|---------------------------|

|-------------------------|-----------------------|---------------------------|

|-------------------------|-----------------------|---------------------------|

|-------------------------|--7----7----7--7-------|---------------------------|

|----7--5--5--5--5--5--5--|--5----5----5--5----5--|----5--5--5-5-5--5-5-5--5--|

|----5--------------------|--------------------3--|----3--3--3-3-3--3-3-3--3--|

   pm.





|-------------------------|

|-------------------------|

|-------------------------|

|-------------------------|

|--7--7--7--7--7--5----5--|

|--5--5--5--5--5--3----3--|

 pm................



Куплет:

|--5--------5--------5-----|--5--------5--------5-----|--7--------7--------7-----|

|--3--3--3--3--3--3--3--3--|--5--5--5--5--5--5--5--5--|--5--5--5--5--5--5--5--5--|

|--------------------------|--------------------------|--------------------------|

|--------------------------|--------------------------|--------------------------|

|--------------------------|--------------------------|--------------------------|

|--------------------------|--------------------------|--------------------------|

    pm....   pm....   pm.      pm....   pm....   pm.      pm....   pm....   pm.





|--10--------10--------10-----|--------------------------|

|--8---8--8--8---8--8--8---8--|--------------------------|

|-----------------------------|--------------------------|

|-----------------------------|--------------------------|

|-----------------------------|--5--5--5--5--5--5--5--5--|

|-----------------------------|--3--3--3--3--3--3--3--3--|

     pm....    pm....    pm.



Вторая гитара в последнем такте куплета:

|--------------------------------------|

|--10b-----10--10b-----10--10b-----10--|

|--------------------------------------|

|--------------------------------------|

|--------------------------------------|

|--------------------------------------|





Припев:

|--------------------------|--------------------------|

|--------------------------|--------------------------|

Продолжаем грести бабос на ботах в Telegram.
Только в этот раз есть вариант автоматизировать это дело, привлекая рефералов. Вы можете заработать если »

|--------------------------|--------------------------| |--------------------------|--5--5--5--5--5--5--5--5--| |--3--3--3--3--3--3--3--3--|--3--3--3--3--3--3--3--3--| |--1--1--1--1--1--1--1--1--|--------------------------| |--------------------------|--------------------------| |--------------------------|--------------------------| |--------------------------|--------------------------| |--2--2--2--2--2--2--2--2--|--3--3--3--3--3--3--3--3--| |--0--0--0--0--0--0--0--0--|--1--1--1--1--1--1--1--1--| |--------------------------|--------------------------| Соло 1: |----------------------|-------------------|-----------------------| |----------------------|-------------------|-----------------------| |----------------------|-------------------|-----------------------| |-----/4----5--7---/7--|----5--------------|-----/4--4--5----4\\-2--| |----------------------|-------------------|-----------------------| |----------------------|-------------------|-----------------------| |-----------------------|-------------------|-----------------------| |-----------------------|-------------------|-----------------------| |-----------------------|-------------------|-----------------------| |-----/4--4--5----7-/9--|----7--------------|-----/4--4--5----4\\-0--| |-----------------------|-------------------|-----------------------| |-----------------------|-------------------|-----------------------| Соло 2: |----------------------|-------------------------| |-------------------8b-|-------8r-----10h8---8---| |--7b-------7--9-------|-------------------9---9-| |----------------------|-------------------------| |----------------------|-------------------------| |----------------------|-------------------------| |------------------------|----------------------------|-----------------------| |------------------------|----------------8-------10--|--------------8----10b-| |--7b---9h-7-----7-------|------------7h9----9h12-----|--7b-------9-----------| |-------------7-------7--|------7--9------------------|-----------------------| |------------------------|----------------------------|-----------------------| |------------------------|----------------------------|-----------------------| |------------------|--17--15--17--15--17--15--------| |------------------|----------------------------15--| |------------------|--------------------------------| |------------------|--------------------------------| |------------------|--------------------------------| |------------------|--------------------------------| Последний куплет: |--------------------------|--------------------------| |--------------------------|--------------------------| |--------------------------|--------------------------| |--5--5--5--5--5--5--5--5--|--5--5--5--5--5--5--5--5--| |--5--5--5--5--5--5--5--5--|--5--5--5--5--5--5--5--5--| |--------------------------|--------------------------| pm................................................. |-------------------|-------------------| |-------------------|-------------------| |-------------------|-------------------| |--5----------------|-------------------| |--5----------------|--------------2----| |-------------------|--------------0----| pm. |------------------|-------------------|-------------------|-------------------| |------------------|-------------------|-------------------|-------------------| |------------------|-------------------|-------------------|-------------------| |------------------|-------------------|--7----------------|-------------------| |------------------|--------------5----|--5----------------|--------------7----| |------------------|--------------3----|-------------------|--------------5----| |-------------------|--------------------|--------------------------| |-------------------|--------------------|--------------------------| |-------------------|--------------------|--------------------------| |-------------------|--------------------|--------------------------| |--2----------------|--5--------5--------|--5--5--5--5--5--5--5--5--| |--0----------------|--3--------3--------|--3--3--3--3--3--3--3--3--| pm...................... Конец: |-------------------|--------------------|--------------------| |-------------------|--------------------|--------------------| |--7----------------|--7--------5--------|--4--------2--------| |--7----------------|--7--------5--------|--5--------2--------| |--5----------------|--------------------|--------------------| |-------------------|--------------------|--------------------| |-----------------2----|--3--2----0----------| |------------3---------|---------------------| |-------2--------------|---------------------| |--0-------------------|---------------------| |----------------------|---------------------| |----------------------|---------------------|

поиск лекарств
список лекарств






О сайтеАккордыХит-парадПоискУроки ФорумыИщу песню
ПрограммыСвежачок-сПодпискаСтатьи
Яндекс.Метрика