Табулатура Король и Шут | Лесник (вступление) гитара табулатуры уроки тексты песен Король и Шут текст lyrics песня аккорды песни ноты нота электрогитара струна  
   А Б В Г Д Е Ж З И К Л М Н О П Р С Т У Ф Х Ч Ш Ы Э Ю Я       Разные песни
1-9 A B C D E F G H I J K L M N O P Q R S T U V W Y Z      Все исполнители in english

    



группа Король и Шут, Табулатура песни Лесник (вступление)

Продолжаем грести бабос на ботах в Telegram.
Только в этот раз есть вариант автоматизировать это дело, привлекая рефералов. Вы можете заработать если »

Группа: Король и Шут - другие аккорды (277),   о группе (10 статей),   диски (9),   фотографии (68)
Табулатура песни: Лесник (вступление)
Просмотров: 12640
Подобрал: PartiZaN (lex85@mail.ru)




    
Гитара 1 играет квинтами и аккордами, Гитара 2 - соляк

 



Гитара 1: Am         

Гитара 2:

E||--------------------------|--------------------------|



B||--------------------------|--------------------------|



G||--------------------------|--------------------------|



D||--------------0--0--2--2--|--------------0--0--2--2--|



A||--0--0--3--3--------------|--0--0--3--3--------------|



E||--------------------------|--------------------------|



Гитара 1: F

Гитара 2:

E||--------------------------|--------------------------|



B||--------------------------|--------------------------|



G||--------------------------|--------------------------|



D||--------------5--5--3--3--|---------------5--5--3--3-|



A||---0--0--3--3-------------|---0--0--3--3-------------|



E||--------------------------|--------------------------|



Гитара 1: Dm

Продолжаем грести бабос на ботах в Telegram.
Только в этот раз есть вариант автоматизировать это дело, привлекая рефералов. Вы можете заработать если »

Гитара 2: E||--------------------------|--------------------------| B||--------------------------|--------------------------| G||--------------------------|--------------------------| D||---5--5--3--3--2--2--0--0-|---5--5--3--3--2--2--0--0-| A||--------------------------|--------------------------| E||--------------------------|--------------------------| Гитара 1: G Гитара 2: E||--------------------------|--------------------------| B||--------------------------|--------------------------| G||--------------------------|--------------------------| D||---------------------0--0-|--------------------0--0--| A||---------2--2--3--3-------|--------2--2--3--3--------| E||---3--3-------------------|---3--3-------------------| Дальше квинтами обе гитары: A5 C5 D5 ED D5/E5 A5 C5 D5 ED D5/E5

найти лекарство
список лекарств

Сапоги угги женские

Сапоги зимние мужские для рыбалки и охоты. Выбирай

uggaustralian.kiev.ua

stroitelstvo63.ru монтаж сэндвич панелей Самара

stroitelstvo63.ru








О сайтеАккордыХит-парадПоискУроки ФорумыИщу песню
ПрограммыСвежачок-сПодпискаСтатьи
Яндекс.Метрика