Табулатура Metallica | Unforgiven (var3) гитара табулатуры уроки тексты песен Metallica текст lyrics песня аккорды песни ноты нота электрогитара струна  
   А Б В Г Д Е Ж З И К Л М Н О П Р С Т У Ф Х Ч Ш Ы Э Ю Я       Разные песни
1-9 A B C D E F G H I J K L M N O P Q R S T U V W Y Z      Все исполнители in english

    



группа Metallica, Табулатура песни Unforgiven (var3)

Группа: Metallica - другие аккорды (225),   о группе (32 статей),   диски (11),   фотографии (49)
Табулатура песни: Unforgiven (var3)
Просмотров: 5151
Подобрал: Павел Терешковец




    
Metallica

The Unforgiven



Intro solo



2I----5--7--8--8-7-5---5--7--8---8-5    x2  ,потом





2I--5--7--8--8--8-8-3--3-3--3-5--7--5----5--7--8--12--12-12-8--8-8---10--12--10







Verse1:





   

   ACOUSTIC

e:|-------------------------------------|

B:|.0--------0--------0--------1-------.|

G:|----2--------2--------2--------2-----|

D:|-------2--------2--------2--------2--|

A:|.0----------------------------------.|

E:|-------------------------------------|



e:-------------------------------------------|

B:---------------h---------------------------|

G:--------2--4--4^5----------5--4--2~~~~~~~~~|

D:-------------------------------------------|

A:-------------------------------------------|

E:-------------------------------------------|



e:-------------------------------------------|

B:0--------0--------0--------1--------1------|

G:---2--------2--------2--------2--------2---|

D:------2--------2--------2--------2--------2|

A:0------------------------------------------|

E:-------------------------------------------|



e:-------------------------------------------|

B:--------------------H----------------------|

G:2-------2-------4--4^5---------5---2~~~~~~~|

D:-------------------------------------------|

A:-------------------------------------------|

E:-------------------------------------------|



e:-------------------------------------------|

B:0--------0--------1--------1--------1------|

G:---2--------2--------2--------2--------2---|

D:------2--------2--------2--------2--------2|

A:0------------------------------------------|

E:-------------------------------------------|



e:-------------------------------------------|

B:------------------H------------------------|

G:(2)-----2----4---4^5---------5---4---2~~~~~|

D:-------------------------------------------|

A:-------------------------------------------|

E:-------------------------------------------|



e:-------------------------------------------|

B:0--------0--------0--------1--------1------|

G:---2--------2--------2--------2--------2---|

D:------2--------2--------2--------2--------2|

A:0------------------------------------------|

E:-------------------------------------------|



e:-------------------------------------------|----------------------------|

B:--------------------H----------------------|-------------H----H---------|

G:~2~~~~~~~2-----4---4^5-----------5-----2~~~|(2)---2--4--4^5--4^5----5---|

D:-------------------------------------------|----------------------------|

A:-------------------------------------------|----------------------------|

E:-------------------------------------------|----------------------------|



e:-------------------------------------------|----------------------------|

B:0--------0--------1--------1--------1------|---------0--1--------1-----1|

G:---2--------2--------2--------2--------2---|------2---------------------|

D:------2--------2--------2--------2--------2|---2--------------2-----2---|

A:0------------------------------------------|0--------------3------------|

E:-------------------------------------------|----------------------------|

              sld.

e:--------------------------------|---------------------H---------|

B:------------------------------H-|----------------H---3^5-----5--|

G:5--4-------4\\-------------2--2^4|2~~~~~~--2--4--4^5-------------|

D:------5~~~-----2----------------|-------------------------------|

A:--------------------------------|-------------------------------|

E:--------------------------------|-------------------------------|



e:--------------------------------|------------------------0-----0|

B:------------------------------H-|------------0--1-----------1---|

G:------0-------0-----------2--2^4|2--------2---------------------|

D:---0-------------2--2--2--------|------2--------------2---------|

A:--------------------------------|---0--------------3------------|

E:3----------3--------------------|-------------------------------|



e:------------------------------|-------------------------------------------|

B:5--3------------------------H-|-------------------------------------------|

G:------4~~~-4\\--1----/4--1--2^4|2~~~~~~~~~~~~~~~~~~~~~~~~~~~~~~~~~~~~~~~~~~|

D:------------------------------|-------------------------------------------|

A:------------------------------|-------------------------------------------|

E:------------------------------|-------------------------------------------|



e:------------------------------|-------------------------------------------|

B:1--3--0-----3---------------H-|---------0--------0--------0--------1------|

G:---------------1--1--4--0--2^4|---2--------2--------2--------2--------2---|

D:------------------------------|------2--------2--------2--------2--------2|

A:------------------------------|0------------------------------------------|

E:---------3--------------------|-------------------------------------------|



e:-------------------------------------|--------|

B:--guitar-2--------__-----------------|--------|

G:----out----------|__|----------------|--------|

D:-------------------------------------|--------|

A:-------------------------------------|--------|

E:-------------------------------------|--------|



e:-------------------------------------|--------|

B:0--------0--------0--------0--------1|--------|

G:---2--------2--------2--------2------|guitar-1|

D:------2--------2--------2--------2---|--out---|

A:0------------------------------------|--------|

E:-------------------------------------|--------|

                       P.M.-|                      P.M.-|

e:|----------------------------|----------------------------|

B:|.---------------------------|----------------------------|

G:|--------------------------12|12--11--11------------------|

D:|--12--10--9--10------------0|-0---0---0--10--10--------12|

A:|.--0---0--0---0--10---------|-------------0---0--0--0---0|

E:|------------------0--0--0---|----------------------------|



e:|----------------------------|----------------------------|

B:|.---------------------------|----------------------------|

G:|----------------------------|----------------------------|

D:|----------------------------|----------------------------|

A:|.---------------------------|----------------------------|

E:|----------------------------|----------------------------|

                    P.M.-|                        P.M.-|

e:---------------------------|-----------------------------|

B:---------------------------|-----------------------------|

G:-------------------------12|12--11--11-------------------|

D:12--10--9--10-------------0|-0---0---0--10--10---------12|

A:-0---0--0---0--10----------|-------------0---0--0--0----0|

E:----------------0--0--0----|-----------------------------|



e:---------------------------|-----------------------------|

B:---------------------------|-----------------------------|

G:---------------------------|-----------------------------|

D:---------------------------|-----------------------------|

A:---------------------------|-----------------------------|

E:---------------------------|-----------------------------|

                     P.M.-|                        P.M.-|

e:----------------------------|-----------------------------|

B:----------------------------|-----------------------------|

G:--------------------------12|12--11--11-------------------|

D:12--10--9--10--------------0|-0---0---0--10--10---------12|

A:-0---0--0---0--10-----------|-------------0---0--0--0----0|

E:----------------0--0--0-----|-----------------------------|



e:----------------------------|-----------------------------|

B:----------------------------|-----------------------------|

G:----------------------------|-----------------------------|

D:----------------------------|-----------------------------|

A:----------------------------|-----------------------------|

E:----------------------------|-----------------------------|

e:---------------------------|--------------|

B:---------------------------|--------------|

G:---------------------------|--------------|

D:12--10--9--10------------12|12--11--11----|

A:-0---0--0---0--10---------0|-0---0---0--10|

E:----------------0--0--0----|-------------0|

e:---------------------------|--------------|

B:---------------------------|--------------|

G:---------------------------|--------------|

D:---------------------------|--------------|

A:---------------------------|--------------|

E:---------------------------|--------------|

       P.M.-|     P.M.-|     P.M.-|     P.M.-|

e:--------------------------------------------|--------------|

B:--------------------------------------------|--------------|

G:--P----------P----------P----------P--------|--------------|

D:10^0--------9^0--------7^0--------5^0-------|5-------------|

A:------0--0-------0--0-------0--0-------0--0-|3---5--3--0--5|

E:--------------------------------------------|-------------3|

e:--------------------------------------------|--------------|

B:--------------------------------------------|--------------|

G:--------------------------------------------|--------------|

D:--------------------------------------------|--------------|

A:--------------------------------------------|--------------|

E:--------------------------------------------|--------------|

       P.M.-|     P.M.-|     P.M.-|     P.M.-|

e:--------------------------------------------|-------------|-|

B:--------------------------------------------|-------------|-|

G:--P----------P----------P----------P--------|-------------|-|

D:10^0--------9^0--------7^0--------5^0-------|5------------|-|

A:------0--0-------0--0-------0--0-------0--0-|3--5--3--0--5|0|

E:--------------------------------------------|------------3|2|

e:--------------------------------------------|-------------|-|

B:--------------------------------------------|-------------|-|

G:--------------------------------------------|-------------|-|

D:--------------------------------------------|-------------|-|

A:--------------------------------------------|-------------|-|

E:--------------------------------------------|-------------|-|

                                       sld.

e:---------------------------|------------------------------|

B:---------------------------|------------------------------|

G:2----4----5----5--------5--|5--4-----4\\------------2---2^4|

D:---------------------------|------5---------2-------------|

A:---------------------------|------------------------------|

E:---------------------------|------------------------------|

e:---------------------------|------------------------------|

B:---------0--1--------1----1|----------------------------H-|

G:------2--------------------|------0-----0-----------2--2^4|

D:---2--------------2-----2--|---0-----------2--2--2--------|

A:0--------------3-----------|------------------------------|

E:---------------------------|3--------3--------------------|

                                               sld.   sld.

e:-------------------------------|------------------------------|

B:------------------5------5-----|5----3------------------------|

G:2----2---4---5-----------------|---------4---4\\--1--/4--0--2^4|

D:-------------------------------|------------------------------|

A:-------------------------------|------------------------------|

E:-------------------------------|------------------------------|

e:------------------------0-----0|------------------------------|

B:------------0--1-----------1---|1--3--0-----3-----------------|

G:2--------2---------------------|---------------1--1--4--0--2^4|

D:------2--------------2---------|------------------------------|

A:---0--------------3------------|------------------------------|

E:-------------------------------|---------3--------------------|

                                        sld.

e:----------------------------|------------------------------|

B:----------------------------|----------------------------H-|

G:2~~~~2~~~~-4---5~~~~~5---5--|5--4-----4\\-------------2--2^4|

D:----------------------------|------5-------2---------------|

A:----------------------------|------------------------------|

E:----------------------------|------------------------------|

e:----------------------------|------------------------------|

B:---------0--1--------1-----1|----------------------------H-|

G:------2---------------------|------0-----0-----------2--2^4|

D:---2--------------2-----2---|---0-----------2--2--2--------|

A:0--------------3------------|------------------------------|

E:----------------------------|3--------3--------------------|

                                               sld.

e:---------------------------------|------------------------------|

B:-----------------------5------5--|5----3----------------------H-|

G:2~~~~-2----4---5-----------------|--------4--4\\--1--/4----0--2^4|

D:---------------------------------|------------------------------|

A:---------------------------------|------------------------------|

E:---------------------------------|------------------------------|

e:--------------------------0-----0|------------------------------|

B:--------------0--1-----------1---|1--3--0-----3---------------H-|

G:2--------2-----------------------|---------------1--1--4--0--2^4|

D:------2----------------2---------|------------------------------|

A:---0----------------3------------|------------------------------|

E:---------------------------------|---------3--------------------|

             ___________             _______________________________

   FIRST TIME            | SECOND TIME                               |

e:-----------------------|-------------------------------------------||

B:----------------------.|-------------------------------------------||

G:-2~~~~~~~~~~~~~~~~~~---|2~~~~~~~~~~~~~~~~~~~-----------------------||

D:-----------------------|-------------------------------------------||

A:----------------------.|-------------------------------------------||

E:-----------------------|-------------------------------------------||

e:-----------------------|-------------------------------------------||

B:----------------------.|0--------0--------0--------0--------1------||

G:-----------------------|---2--------2--------2--------2--------2---||

D:-----------------------|------2--------2--------2--------2--------2||

A:----------------------.|0------------------------------------------||

E:-----------------------|-------------------------------------------||

     INTERLUDE

e:|-----------------------------------------------|

B:|-------------------H-P-------------------------|

G:|-----4--5--7---5--4^5^4-----4------H-----------|

D:|--7----------------------7-----5--5^7~~~~~~~~~~|

A:|-----------------------------------------------|

E:|-----------------------------------------------|

                                                 6x

e:|-----------------------------------------------|

B:|.-0--------0--------0--------0--------1-------.|

0G:|-----2--------2--------2--------2--------2-----|

D:|--------2--------2--------2--------2--------2--|

A:|.-0-------------------------------------------.|

E:|-----------------------------------------------|

                                      slide

e:0--0--0---0--0--0---H-------------|------------H---------------------|

B:0--1--3---5--3--1--1^3~~~~~~~~~~~~|8/10\\8--7--3^5--3--------3--------|

G:----------------------------------|7/9-\\7--7----------5--4----4------|

D:----------------------------------|-----------------------------5~~~~|

A:----------------------------------|----------------------------------|

E:----------------------------------|----------------------------------|

e:----------------------------------|----------------------------------|

B:----------------------------------|----------------------------------|

G:----------------------------------|----------------------------------|

D:----------------------------------|----------------------------------|

A:----------------------------------|----------------------------------|

E:----------------------------------|----------------------------------|

e:-----------------------------------------|

B:-----------------------------------------|

G:--------------------------5------H-------|

D:~(5)~------------------5-----5--5^7~~~~~~|

A:------------3/5--6--7--------------------|

E:------3--5-------------------------------|

e:-----------------------------------------|

B:-----------------------------------------|

G:-----------------------------------------|

D:-----------------------------------------|

A:-----------------------------------------|

E:-----------------------------------------|

e:----H-P------------7----7-------10----|

B:8--7^8^7----7-8-10---8~~--8~~~8----8~~|

G:---------9----------------------------|

D:--------------------------------------|

A:--------------------------------------|

E:--------------------------------------|

e:--------------------------------------|

B:--------------------------------------|

G:--------------------------------------|

D:--------------------------------------|

A:--------------------------------------|

E:--------------------------------------|

     sld.            sld.           sld.

e:---------12-------------14--------------15----17~~~||

B:~(8)~/10----10~~~-10/12----12~~~-12/14-----14------||

G:---------------------------------------------------||

D:---------------------------------------------------||
Узнай ВСЕ о своем друге в ВК или FB
A:---------------------------------------------------|| E:---------------------------------------------------|| e:---------------------------------------------------|| B:---------------------------------------------------|| G:---------------------------------------------------|| D:---------------------------------------------------|| A:---------------------------------------------------|| E:---------------------------------------------------|| Guitar Solo bend sld. e:---------------------------------------|-------------------------------| B:7b(1/2)--7b(1/2)-----------------------|-------------------------------| G:7b(full)-7b(full)--5-------------------|------------------------------5| D:---------------------7~~~~~~~--7b(full)|5--------------------------/7--| A:---------------------------------------|--7-5\\3-5-3-------3b(full)-----| E:---------------------------------------|------------5-3-5--------------| e:---------------------------------------|-------------------------------| B:---------------------------------------|-------------------------------| G:---------------------------------------|-------------------------------| D:---------------------------------------|-------------------------------| A:---------------------------------------|-------------------------------| E:---------------------------------------|-------------------------------| sld. A.H. A.H. e:---------------------H-------10----------8-----| B:------------7---7-8-7^8--10------10---10---10~~| G:7~~5-7-7/9-7--9--------------------------------| D:-----------------------------------------------| A:-----------------------------------------------| E:-----------------------------------------------| e:-----------------------------------------------| B:-----------------------------------------------| G:-----------------------------------------------| D:-----------------------------------------------| A:-----------------------------------------------| E:-----------------------------------------------| e:--------10-------------------|--------------20B(1-3/4)--20B(1-1/2)| B:~(10)~10--10~~---20b(FULL-4x)|20B(FULL)--17-----------------------| G:-----------------------------|------------------------------------| D:-----------------------------|------------------------------------| A:-----------------------------|------------------------------------| E:-----------------------------|------------------------------------| e:-----------------------------|------------------------------------| B:-----------------------------|------------------------------------| G:-----------------------------|------------------------------------| D:-----------------------------|------------------------------------| A:-----------------------------|------------------------------------| E:-----------------------------|------------------------------------| P slds. e:20B(1-1/2)-17-17-20^17--17------------------| B:----------------------20--20B(FULL)~~~~-----| G:------------------------------------------/9| D:---------------------------------------17\\--| A:--------------------------------------------| E:--------------------------------------------| e:--------------------------------------------| B:--------------------------------------------| G:--------------------------------------------| D:--------------------------------------------| A:--------------------------------------------| E:--------------------------------------------| P sld. sld. sld. e:10^9-7-9--9----------------------------|--12----12----12| B:--------10-8-7-7-----------------------|13--13----13----| G:--------------9-9-7\\5-7-5/4-5-4-2~~-/14|------14----14--| D:---------------------------------------|----------------| A:---------------------------------------|----------------| E:---------------------------------------|----------------| e:---------------------------------------|----------------| B:---------------------------------------|----------------| G:---------------------------------------|----------------| D:---------------------------------------|----------------| A:---------------------------------------|----------------| E:---------------------------------------|----------------| e:----12----12----12----12-------| B:13----13----13----13----13-----| G:--14----14----14----14----14~~~| D:-------------------------------| A:-------------------------------| E:-------------------------------| e:-------------------------------| B:-------------------------------| G:-------------------------------| D:-------------------------------| A:-------------------------------| E:-------------------------------| e:-----------------------------------------------------------17-19| B:----------------------------20b(full)---20b(full)~~~~~~~~~~-----| G:19b(full)----19b(full)--17--------------------------------------| D:----------------------------------------------------------------| A:----------------------------------------------------------------| E:----------------------------------------------------------------| e:----------------------------------------------------------------| B:----------------------------------------------------------------| G:----------------------------------------------------------------| D:----------------------------------------------------------------| A:----------------------------------------------------------------| E:----------------------------------------------------------------| H P e:20-19-17-19--17^19^17----------17------------------------------------------|B:---------------------20b(full)---20-17---------20-17-----------------P-----|G:--------------------------------------19b(full)-----19-19b(full)~(19)^17-19|D:---------------------------------------------------------------------------| A:---------------------------------------------------------------------------|E:---------------------------------------------------------------------------| e:---------------------------------------------------------------------------|B:---------------------------------------------------------------------------|G:---------------------------------------------------------------------------|D:---------------------------------------------------------------------------|A:---------------------------------------------------------------------------|E:---------------------------------------------------------------------------| e:---------------|-------------------------------------------------H--P--| B:------------P--|--------------------------20-(20)~~~~~~~~~~~~~~18^20^18| G:b(full)~(19)^17|19b(full)-----19b(full)-17-----------------------------| D:---------------|-------------------------------------------------------| A:---------------|-------------------------------------------------------| E:---------------|-------------------------------------------------------| e:---------------|-------------------------------------------------------| B:---------------|-------------------------------------------------------| G:---------------|-------------------------------------------------------| D:---------------|-------------------------------------------------------| A:---------------|-------------------------------------------------------| E:---------------|-------------------------------------------------------| e:-------------------------|--P----------------------|----------------------| B:17~~~~~~~~~~~~~~~~~~~~~~~|18^17~~~~~~~~~~~~~~~~~~~~|----------------------| G:-------------------------|-------------------------|--2--4--5~~~~~~~---5--| D:-------------------------|-------------------------|----------------------| A:-------------------------|-------------------------|----------------------| E:-------------------------|-------------------------|----------------------| e:-------------------------|-------------------------|----------------------| B:-------------------------|-------------------------|.-------0-1------1---1| G:-------------------------|-------------------------|------2---------------| D:-------------------------|-------------------------|----2----------2---2--| A:-------------------------|-------------------------|.-0----------3--------| E:-------------------------|-------------------------|----------------------| sld. e:-------------------------|----------------------------| B:-----------------------H-|----------------------5----5| G:5--4-------4\\-------2-2^4|2~~~~~-2---4---5~~~~~~------| D:-----5~~~~~-----2--------|----------------------------| A:-------------------------|----------------------------| E:-------------------------|----------------------------| e:-------------------------|---------------------0-----0| B:-----------------------H-|-----------0--1----------1--| G:-----0----0---------2-2^4|2------2--------------------| D:---0---------2--2-2------|-----2------------2---------| A:-------------------------|---0------------3-----------| E:3------3-----------------|----------------------------| sld. sld. e:-----------------------------|--------------------------| B:5-3----------------------H---|--------------------------| G:----4~~~~-4\\--1---/4--0-2^4--|2~~~~-2---4---5~~~~-5----5| D:-----------------------------|--------------------------| A:-----------------------------|--------------------------| E:-----------------------------|--------------------------| 2x e:-----------------------------|--------------------------| B:1-3-0-----3--------------H--.|--------------------------| G:--------------1-1--4--0-2^4--|--------------------------| D:-----------------------------|--------------------------| A:----------------------------.|--------------------------| E:-------3---------------------|--------------------------| sld. e:------------------------------|-----------------------| B:--------------------------H---|------------------5---5| G:5-4-------4\\----------2--2^4--|2~~~~-2--4--5~~~~------| D:----5~~~~------2--------------|-----------------------| A:------------------------------|-----------------------| E:------------------------------|-----------------------| e:------------------------------|-----------------------| B:------------------------------|-----------------------| G:------------------------------|-----------------------| D:------------------------------|-----------------------| A:------------------------------|-----------------------| E:------------------------------|-----------------------| sld. sld. e:-----------------------|--------------------------------| B:5-3------------------H-|--------------------------------| G:----4~~~-4\\-1--/4-0-2^4|2~~~~~~~~~~~~~~~~~~~~~~~~~~~~~~~| D:-----------------------|--------------------------------| A:-----------------------|--------------------------------| E:-----------------------|--------------------------------| e:-----------------------|--------------------------------| B:-----------------------|--------------------------------| G:-----------------------|--------------------------------| D:-----------------------|--------------------------------| A:-----------------------|--------------------------------| E:-----------------------|--------------------------------| H H e:-------------------------|---------------------3-|3^5~~~~~~~~---7~~~~~~~~~| B:--__---------------------|----------3^5-----5--3-|3^5~~~~~~~~---3~~~~~~~~~| G:-|__|---------------2-2^4|2~~~~--2--4^5-----5----|------------------------| D:-------------------------|-----------------------|------------------------| A:-------------------------|-----------------------|------------------------| E:-------------------------|-----------------------|------------------------| Verse2: Intro:Starts with a horn rythm: clean electric |--------------------------------| |-0-----0-----0-----0-----1------| |---2-----2-----2-----2-----2----| |-----2-----2-----2-----2-----2--| |-0------------------------------| |--------------------------------| Kirk |------------------------------------------| |------------------------------------------| |--2--4--4h5---5-4-2----2--4--4h5---5--2---| |------------------------------------------| |------------------------------------------| |------------------------------------------| |-------------------------------------------| |-------------------------------------------| |--2--4--4h5--5--5--5--4---4---2--2h4--2---| |------------------------5----2-------------| |-------------------------------------------| |-------------------------------------------| |------------------------------------------------| |------------5--5--5--3--------------------------| |--2--4--4h5------------4--4--1--/4--1--2h4-2---| |------------------------------------------------| |------------------------------------------------| |------------------------------------------------| Kirk\'s part (Played right along with the words.) |-------------------------------------------| |------------------8--8--7--7---------------| |-7--5--4--4h5----------------5--5---7------| |--------------5----------------------------| |-------------------------------------------| |-------------------------------------------| Keep repeating throughtout.. |------------------------| |------------------------| |--5----4----2----0------| |---0----0----0----0-----| |----00---00---00---00---| |------------------------| \"on and on. He\'s known\" Interlude Играет Kirk |-------------------------------------------------| |-----------------------------0-1-3-5-3-1-0h1/3---| |---4-5-7-5-4h5p4---4-----------------------------| |-7---------------7---5-5h7-----------------------| |-------------------------------------------------| |-------------------------------------------------| |--35-3--2---------------------------------------| |--35-3--3--3h5h3-3------------------------------| |--------------------4-----------------5----------| |----------------------5-------------5---5-5/7----| |----------------------------3/5-6-7--------------| |------------------------3-5----------------------| |-------------------7---7-----10--------12---------14-----15--17--| |--8-7h8p7---7-8-10---8---8-8----8-8/10---10-10/12---12-12--14----| |----------9------------------------------------------------------| |-----------------------------------------------------------------| |-----------------------------------------------------------------| |-----------------------------------------------------------------| Solo: играет Kirk |-----------------------------------------------------------------| |--7^--7^---------------------------------------------------------| |--7^--7^--5------------------------------------5--7--5-7-7/9-7-9-| |------------7--7^--5------------------------/7-------------------| |---------------------7-5/3-5-3--------3^-------------------------| |-------------------------------5-3-5-----------------------------| (extreme repeated bending) |----------------10-------8------10------------------------| |-7--7-8-7h8--10----10--10--10-10--10----20^^^^^^^^^-17----| |---9------------------------------------------------------| |----------------------------------------------------------| |----------------------------------------------------------| |----------------------------------------------------------| |-20^--20^^^--17-17-20p17----17--------------10p9-7-9---9---------| |-------------------------20----20^------------------10---8-7---7-| |-----------------------------------------9------------------9---| |-------------------------------------17-------------------------| |-----------------------------------------------------------------| |-----------------------------------------------------------------| |------------------------------12--------12-------12-------12---------| |---------------------------13----13--------13-------13-------13------| |-9-75-7-54-5-4-2----14-----------14--------14-------14-------14---| |---------------------------------------------------------------------| |---------------------------------------------------------------------| |---------------------------------------------------------------------| |-12--------12-------12--------------------------------------17-19-20-| |----13--------13-------13----------------------20^---20^-------------| |-------14--------14-------14----19^----19^--17-----------------------| |---------------------------------------------------------------------| |---------------------------------------------------------------------| |---------------------------------------------------------------------| |-19-17-19--17h19p17-----17-------------------------------------------| |-------------------20^----20-17----20-17-----------------------------| |-------------------------------19^------19-19^p17-19^p17--19^-19^-17-| |---------------------------------------------------------------------| |---------------------------------------------------------------------| |---------------------------------------------------------------------| |-------------------------------------------------| |-20~~~---18h20p18---17~~~~~--18p17~~~~~~~~~~-----| |-------------------------------------------------| |-------------------------------------------------| |-------------------------------------------------| |-------------------------------------------------|

лекарство в аптеке
список лекарств

изготовление установка межкомнатных дверей

azbukaremonta72.ru

Декоративная штукатурка купить в москве

В Москве. Клуб декоративного садоводства. Декоративные покрытия

kraskideco.ru

Ремонт квартир в ЖК ВеллХаус

Цены упали! Узнай подробнее про ЖК Велл Хаус на сайте

vgrealty.ru








О сайтеАккордыХит-парадПоискУроки ФорумыИщу песню
ПрограммыСвежачок-сПодпискаСтатьи
Яндекс.Метрика