Басовая табулатура Ария | Штиль гитара табулатуры уроки тексты песен Ария текст lyrics песня аккорды песни ноты нота электрогитара струна  
   А Б В Г Д Е Ж З И К Л М Н О П Р С Т У Ф Х Ч Ш Ы Э Ю Я       Разные песни
1-9 A B C D E F G H I J K L M N O P Q R S T U V W Y Z      Все исполнители in english

    



группа Ария, Басовая табулатура песни Штиль

Продолжаем грести бабос на ботах в Telegram.
Только в этот раз есть вариант автоматизировать это дело, привлекая рефералов. Вы можете заработать если »

Группа: Ария - другие аккорды (629),   о группе (7 статей),   диски (18),   фотографии (92)
Басовая табулатура песни: Штиль
Просмотров: 7112
Подобрал: Locksmith (locksmith@yandex.ru)




    
Паузы не соответствуют расстоянию между нотами (следите за текстом песни - таба соответствует словам)

Строй стандартный

G

D

A

E



Вступление

|----------------|-----------------|--------------------|

|--0------0------|-----------------|----0---------------|

|----------------|---0-------------|-----------0--------|

|----------------|---------3-------|----------------3---|



1-й куплет:

   Штиль,       ве - тер  молч-ит,                    упал                   белой чайкой на дно    

|--------|------------------|------------|------------|----------------|-------------------|--------|--------|

|--0-----|------------------|------------|------------|----------------|-------------------|---0----|--------|

|--------|-0----------------|--3---------|-3----------|----------------|-------------------|--------|--0-----|

|--------|------3-----------|------------|------------|-3------0----1--|--3----------------|--------|------3-|



   Штиль,      наш  корабль забыт,                    один                 в море, скованном сном    

|--------|------------------|------------|------------|----------------|-------------------|--------|--------|

|--0-----|------------------|------------|------------|----------------|-------------------|---0----|--------|

|--------|-0----------------|--3---------|-3----------|----------------|-------------------|--------|--0-----|

|--------|------3-----------|------------|------------|-3------0----1--|--3----------------|--------|------3-|



 Между всех времен       без имен и лиц.       Мы уже  не ждем  что прос--нется бриз

|---------------------|----------------------|-----------------|----------------------|---------|

|---------------------|--------3-------------|-----------------|----------------------|---------|

|--------1------------|----------------------|------0---1------|------0----1------3---|---3---1-|

|---------------------|----------------------|--3--------------|----------------------|---------|



2-й куплет:

Штиль,                      сходим с   у---ма,                                  жа- 

|----------------|----------------------|---------------------|-------------------|

|--0----0--------|--0----0--------------|---------0--------0--|--------0--------0-|

|----------------|----------------------|---3--3--------------|--3--3-------------|

|---------0--1--0|---------0--1--------0|-----------0---------|----------0--------|



-ра                па-х-нет   чер-ной смолой

|----------------|-------------------|--------------------|--------|

|-------0------0-|-------0---------0-|----0---0-----------|--------|

|----------------|-------------------|--------------------|--0-----|

|-3--3-----0-----|-3--3--------0-----|------------0--1--0-|------3-|



 Смерть                 одно-го лишь  нуж--на                                  и

|----------------|----------------------|---------------------|-------------------|

|--0----0--------|--0----0--------------|---------0--------0--|--------0--------0-|

|----------------|----------------------|---3--3--------------|--3--3-------------|

|---------0--1--0|---------0--1--------0|-----------0---------|----------0--------|



 мы               мы    вер---нем-ся   домой

|----------------|-------------------|--------------------|--------|

|-------0------0-|-------0---------0-|----0---0-----------|--------|

|----------------|-------------------|--------------------|--0-----|

|-3--3-----0-----|-3--3--------0-----|------------0--1--0-|------3-|



Припев:

Продолжаем грести бабос на ботах в Telegram.
Только в этот раз есть вариант автоматизировать это дело, привлекая рефералов. Вы можете заработать если »

Его кровь и плоть вновь насытят нас |--------------------|-----------------------|----------| |--------------------|--------------3--------|---0--0---| |--------1--------0--|-1---------------------|-3------3-| |--------------3-----|-----------------------|----------| А за смерть ему может бог воздаст |--------------------|-----------------------| |--------------------|--------------3--------| |--------1--------0--|-1---------------------| |--------------3-----|-----------------------| Что нас ждет, мо-ре хра--нит мол-чанье |------------|----------------------|---------------------|-------|------| |-------0----|-0--0--0-0--0--0--0-0-|--0--0--0-0-0--------|-------|------| |-3--3-----3-|----------------------|---------------------|-1-----|-0----| |------------|----------------------|---------------0---1-|-----0-|----3-| Жаж--------да жить су--шит сердца до дна |----------------------|---------------------|-------|-------| |-0--0--0-0--0--0--0-0-|--0--0--0-0----------|-------|-------| |----------------------|---------------------|-0---1-|-----0-| |----------------------|---------------0---1-|-------|-0-----| Толь-------ко жизнь здесь ни--че--го не сто--ит |------------|----------------------|------------------------|-------|------| |-------0----|-0--0--0-0--0--0--0-0-|--0--0--0-0-0-----------|-------|------| |-3--3-----3-|----------------------|------------------------|-1-----|-0----| |------------|----------------------|------------------0---1-|-----0-|----3-| Жизнь дру-----------гих но не тво---я |----------------------|---------------------|-------|-------| |-0--0--0-0--0--0--0-0-|--0--0--0-0----------|-------|-------| |----------------------|---------------------|-0---1-|-----0-| |----------------------|---------------0---1-|-------|-0-----| 3-й куплет играется аналогично второму. После второго припева и во время соляка играется следующее: |-------------------------|------------------------|-----------------|-------------------| |-------0--0---------0--0-|-------0--0--------0--0-|-----------------|-------------------| |-0-----------0-----------|-0-----------0----------|-------1----1--1-|--1--1--1--1--1--1-| |----3-----------3--------|----3-----------3-------|-0--1------------|-------------------| |--------------------|--------------------|---------------|-------------------| |--------------------|--------------------|------0---0--0-|--0--0--0--0--0--0-| |--------------------|--------------------|--3-0----------|-------------------| |-3-1-3--3--3-1-3--3-|-3-1-3--3--3-1-3--3-|---------------|-------------------| Концовка замедляя |---------------|---| |-0--0--0--0--0-|-0-| |---------------|---| |---------------|---|

лекарство в аптеке
список лекарств






О сайтеАккордыХит-парадПоискУроки ФорумыИщу песню
ПрограммыСвежачок-сПодпискаСтатьи
Яндекс.Метрика