Табулатура Nightwish | Walking In The Air гитара табулатуры уроки тексты песен Nightwish текст lyrics песня аккорды песни ноты нота электрогитара струна  
   А Б В Г Д Е Ж З И К Л М Н О П Р С Т У Ф Х Ч Ш Ы Э Ю Я       Разные песни
1-9 A B C D E F G H I J K L M N O P Q R S T U V W Y Z      Все исполнители in english

    



группа Nightwish, Табулатура песни Walking In The Air

Работа в Европе для граждан РФ, Украины, СНГ

  • минимальная зарплата $500.
  • виза и контракт на полгода, возможно продление
  • проживание оплачивает работодатель
  • нужен только загранпаспорт
  • оформление 190 €
  • данное предложение - отличная возможность эмигрировать в Европу и закрепиться здесь навсегда.

  • Мы свяжемся с Вами по WhatsApp или Viber и ответим на любые вопросы.
    на нашем сайте можно почитать подробнее »

    Группа: Nightwish - другие аккорды (414),   о группе (12 статей),   диски (6),   фотографии (25)
    Табулатура песни: Walking In The Air
    Просмотров: 1987
    Прислал: Locksmith (locksmith@yandex.ru)




        
    Standard Tuning (EADGBE)
    
    
    
    
    
    Chord: 1:10
    
    |-------|
    
    |-------|
    
    |---7---|
    
    |---7---|
    
    |---5---|
    
    |-------|
    
    
    
    
    
    Solo: 2:47
    
    |--------------------------------------------------------|
    
    |--------------------------------------------------------|
    
    |----19-19-17-17-----------19-19-17-17-14-10-12~-/14-12--|
    
    |-19-------------19-----19-------------------------------|
    
    |--------------------------------------------------------|
    
    |--------------------------------------------------------|
    
    
    
    |--------------------------------------------------------|
    
    |--------------------------------------------------------|
    
    |-12-14-/15-14-12~---------------------------------------|
    
    |-------------------12-14-/15-14-12---10-12p10-----------|
    
    |----------------------------------------------12~-------|
    
    |--------------------------------------------------------|
    
    
    
    |------------------------------------------------------------|
    
    |----15----17-/18-17p15-13-15p13----------15----17-/18-17h18-|
    
    |-14----14-----------------------14~---14----14--------------|
    
    |------------------------------------------------------------|
    
    |------------------------------------------------------------|
    
    |------------------------------------------------------------|
    
    
    
    |------------------------------------------------------------|
    
    |-/20~-/22-20~--20h22-/23-22-20--15h17-/18-17-15-13-15p13----|
    
    |---------------------------------------------------------14-|
    
    |------------------------------------------------------------|
    
    |------------------------------------------------------------|
    
    |------------------------------------------------------------|
    
    
    
    
    
    Riff A: 3:49
    
    Two Times:
    
    |------------------------------------------------------------|
    
    |------------------------------------------------------------|
    
    |-7----------5----/7--5--------------2-3----------5----------|
    
    |-7----------5----/7--5----5---------2-3----------5----------|
    
    Узнай ВСЕ о своем друге в ВК или FB
    |-5----------3-------------5---------0-1----------3----------| |--------------------------3---------------------------------| Riff B: 4:28 |------------------------------------------------------------| |------------------------------------------------------------| |-7-----7-----7-----7-----7-----7-----7-----7-----7-----7-7--| |-7-----7-----7-----7-----7-----7-----7-----7-----7-----7-7--| |-5-5-5-5-5-5-5-5-5-5-5-5-5-5-5-5-5-5-5-5-5-5-5-5-5-5-5-5-5--| |------------------------------------------------------------| |------------------------------------------------------------| |------------------------------------------------------------| |-7-----7---5----/7--5--------------------------3-------5----| |-7-----7---5----/7--5-----5--------5-----5-----3-------5----| |-5-5-5-5---3--------------5--------5-----5-----1-------3----| |--------------------------3----3-3-3-3-3-3-3-3--------------| |----------------------------------------------| |----------------------------------------------| |-7-----7-----7-----7-----7-----7-----7-----7--| |-7-----7-----7-----7-----7-----7-----7-----7--| |-5-5-5-5-5-5-5-5-5-5-5-5-5-5-5-5-5-5-5-5-5-5--| |----------------------------------------------| |------------------------------------------------------------| |------------------------------------------------------------| |-7-----7-----7-----7-----7-----7-----7-----7-----7-----7-7--| |-7-----7-----7-----7-----7-----7-----7-----7-----7-----7-7--| |-5-5-5-5-5-5-5-5-5-5-5-5-5-5-5-5-5-5-5-5-5-5-5-5-5-5-5-5-5--| |------------------------------------------------------------| |------------------------------------------------------------| |------------------------------------------------------------| |-7-----7---5----/7--5----------------------------3~-------5~| |-7-----7---5----/7--5-----5--------5-----5------------------| |-5-5-5-5---3--------------5--------5-----5-----1-------3----| |--------------------------3----3-3-3-3-3-3-3-3--------------| |------------------------------------------------------------| |----------------------------------------3-------------------| |-2~--------------------------------------2------------------| |---------5~-----3~-----/5~-------2~-------0-----------------| |-------------------------------------------0----------------| |------------------------------------------------------------|

    найти лекарство
    список лекарств






    О сайтеАккордыХит-парадПоискУроки ФорумыИщу песню
    ПрограммыСвежачок-сПодпискаСтатьи
    Яндекс.Метрика