Табулатура Ария | Химера гитара табулатуры уроки тексты песен Ария текст lyrics песня аккорды песни ноты нота электрогитара струна  
   А Б В Г Д Е Ж З И К Л М Н О П Р С Т У Ф Х Ч Ш Ы Э Ю Я       Разные песни
1-9 A B C D E F G H I J K L M N O P Q R S T U V W Y Z      Все исполнители in english

    



группа Ария, Табулатура песни Химера

Продолжаем грести бабос на ботах в Telegram.
Только в этот раз есть вариант автоматизировать это дело, привлекая рефералов. Вы можете заработать если »

Группа: Ария - другие аккорды (629),   о группе (7 статей),   диски (18),   фотографии (92)
Табулатура песни: Химера
Просмотров: 4456
Подобрал: Вован (Vovanchul@mail.ru)




    

Вступл-ие

E||-------------------------------------------

B||-4-6--4-7---3-4--3-6---7-----------------4-

G||---------------------------3-4-3---1-3-4---

D||-------------------------------------------

A||-------------------------------------------

E||-------------------------------------------



-------------------------------------------

6--4-7---3-4--3-6---4-----------------4-6--

------------------------3-4-3---1-3-4------

-------------------------------------------

-------------------------------------------

-------------------------------------------


Продолжаем грести бабос на ботах в Telegram.
Только в этот раз есть вариант автоматизировать это дело, привлекая рефералов. Вы можете заработать если »

------------------------------------------ 4-7---3-4--3-6---7-----------------4-6--4- ---------------------3-4-3---1-3-4-------- ------------------------------------------ ------------------------------------------ ------------------------------------------ -------------------------------------|| 7---3-4--3-6---4-------4-------4-----|| -------------------8-------8-------8-|| -------------------------------------|| -------------------------------------|| -------------------------------------||

найти лекарство
список лекарств

Изготовление макетов местности

Фотогалерея макетов. Модели техники и макеты

ooomaket.ru








О сайтеАккордыХит-парадПоискУроки ФорумыИщу песню
ПрограммыСвежачок-сПодпискаСтатьи
Яндекс.Метрика