Басовая табулатура Metallica | The Unforgiven (bass) гитара табулатуры уроки тексты песен Metallica текст lyrics песня аккорды песни ноты нота электрогитара струна  
   А Б В Г Д Е Ж З И К Л М Н О П Р С Т У Ф Х Ч Ш Ы Э Ю Я       Разные песни
1-9 A B C D E F G H I J K L M N O P Q R S T U V W Y Z      Все исполнители in english

    



группа Metallica, Басовая табулатура песни The Unforgiven (bass)

Группа: Metallica - другие аккорды (225),   о группе (32 статей),   диски (11),   фотографии (49)
Басовая табулатура песни: The Unforgiven (bass)
Просмотров: 4593
Прислал: Locksmith (slesarev-oleg@chat.ru)




    
INTRO 

|----------------------------------------|---------------------------| 

|------------====guitar====--------------|---------------------------| 

|----------------------------------------|--0---2-2-3------3------3--| 

|----------------------------------------|---------------------------| 



|--------------------------------------------------------------------| 

|-----------------------------------------------------------3-----3--| 

|-3-2---------2-----------0-0-2-----0-------0---2---3----------------| 

|-----3-----------0--------------------------------------------------| 



|--------------------------------------------------------------------| 

|-3-1----------------------------------------------------------------| 

|-----2-------2-----------2-----2---0--------------------------------| 

|-----------------4---------4----------------------------------------| 



VERSE 

It\'s kinda hard to get the right timing with this, so I did this part like 

every other person did it, with a Chord sheet. Easier for everyone. 

  

|---|     |---|    |---|    |---|    |---| 

|---|     |---|    |---|    |---|    |---| 

|---|     |---|    |-5-|    |---|    |-3-| 

|-5-| A   |-0-| E  |---| D  |-3-| G  |---| C 





A                     E 

New blood joins this earth 

D               A 

And quickly he\'s subdued 

                        E 

Through constant pain disgrace 

D                      A 

The young boy learns their rules 

                          E 

With time the child draws in 

D                 A 

This whipping boy done a wrong 
Узнай ВСЕ о своем друге в ВК или FB
E Deprived of all his thoughts D A the young man struggles on and on C G He knows a vow unto his own C G That never from this day C G E His will they\'ll take away. CHORUS |--------------------------------------------------------------------| |--------------------------------------------------------------------| |--------0---2---3-------3------3---3-2---------2-----------0-0-2----| |---------------------------------------3-----------0----------------| |--------------------------------------------------------------------| |-------------------------3-----3---3-1------------------------------| |-0-------0---2---3---------------------2-------2-----------2---0-2--| |---------------------------------------------------4---------4------| |--------------------------------------------------------------------| |--------------------------------------------------------------------| |-0-------0---2---3-------3-----3---3-2---------2-----------0-0-2----| |---------------------------------------3-----------0----------------| |--------------------------------------------------------------------| |-------------------------3-----3---3-1------------------------------| |-0-------0---2---3---------------------2-------2-----------2---0-2--| |---------------------------------------------------4---------4------| |---------------------------------| |---------------------------------| |-0-------------------------------| |---------------------------------|

искать в аптеке
список лекарств






О сайтеАккордыХит-парадПоискУроки ФорумыИщу песню
ПрограммыСвежачок-сПодпискаСтатьи
Яндекс.Метрика