Басовая табулатура Metallica | Nothing Else Matters (bass) гитара табулатуры уроки тексты песен Metallica текст lyrics песня аккорды песни ноты нота электрогитара струна  
   А Б В Г Д Е Ж З И К Л М Н О П Р С Т У Ф Х Ч Ш Ы Э Ю Я       Разные песни
1-9 A B C D E F G H I J K L M N O P Q R S T U V W Y Z      Все исполнители in english

    



группа Metallica, Басовая табулатура песни Nothing Else Matters (bass)

Группа: Metallica - другие аккорды (225),   о группе (32 статей),   диски (11),   фотографии (49)
Басовая табулатура песни: Nothing Else Matters (bass)
Просмотров: 7534
Прислал: Locksmith (slesarev-oleg@chat.ru)




    
Wait through 24 measures of guitar intro 

  Verse 1 

G|----------------|--------------------|----------------|--------------------| 

D|----------------|--------------------|----------------|--------------------| 

A|---------7------|--5-----------------|---------7------|--5-----------------| 

E|--0-------------|----------8----3--2-|--0-------------|----------8----3--2-| 



G|----------------|--------------------|--------------|------------|----------------------------|| 

D|----------------|--------------------|--------------|------------|----------------------------|| 

A|---------7------|--5-----------------|--------2-----|--------7---|--------------7--(7)\\-------|| 

E|--0-------------|----------8----3--2-|--3-----------|--0---------|--0--0--0--0-----------3--2-|| 



 Verse 2 

G|----------------|--------------------|----------------|--------------------| 

D|----------------|--------------------|----------------|--------------------| 

A|---------7------|--5-----------------|---------7------|--5-----------------| 

E|--0-------------|----------8----3--2-|--0-------------|----------8----3--2-| 



G|----------------|--------------------|--------------|------------|----------------------------|| 

D|----------------|--------------------|--------------|------------|----------------------------|| 

A|---------7------|--5-----------------|--------2-----|--------7---|--------------7--(7)\\-------|| 

E|--0-------------|----------8----3--2-|--3-----------|--0---------|--0--0--0--0-----------3--2-|| 



Verse 3 

G|----------------|--------------------|----------------|--------------------| 

D|----------------|--------------------|----------------|--------------------| 

A|---------7------|--5-----------------|---------7------|--5-----------------| 

E|--0-------------|----------8----3--2-|--0-------------|----------8----3--2-| 



G|----------------|--------------------|--------------|------------|------------|| 

D|----------------|--------------------|--------------|------------|------------|| 

A|---------7------|--5-----------------|--------2-----|--------7---|--3----0----|| 

E|--0-------------|----------8----3--2-|--3-----------|--0---------|------------|| 

  

  Chorus 

G|-------------------|------------|-------------------|-------------| 

D|-------------------|------------|-------------------|-------------| 

A|--5--5--5--5--5--5-|--3-----0---|--5--5--5--5--5--5-|--3-----0----| 

E|-------------------|------------|-------------------|-------------| 

  

G|----------|---------|------------------|| 

D|----------|---------|------------------|| 

A|--5--5--5-|---------|--7---------------|| 

E|----------|--0------|--------0----3--2-|| 



  Verse 4 

G|----------------|--------------------|----------------|--------------------| 

D|----------------|--------------------|----------------|--------------------| 

A|---------7------|--5-----------------|---------7------|--5-----------------| 

E|--0-------------|----------8----3--2-|--0-------------|----------8----3--2-| 

  

G|----------------|--------------------|--------------|------------|------------|| 

D|----------------|--------------------|--------------|------------|------------|| 

A|---------7------|--5-----------------|--------2-----|--------7---|--3----0----|| 

E|--0-------------|----------8----3--2-|--3-----------|--0---------|------------|| 

  

  Chorus 

G|-------------------|------------|-------------------|-------------| 

D|-------------------|------------|-------------------|-------------| 

A|--5--5--5--5--5--5-|--3-----0---|--5--5--5--5--5--5-|--3-----0----| 

E|-------------------|------------|-------------------|-------------| 

  





G|----------|---------|------------------|| 

D|----------|---------|------------------|| 

A|--5--5--5-|---------|--7---------------|| 

E|----------|--0------|--------0----3--2-|| 



  Interlude 

G|---------------------------|------------------------|--------------| 

D|---------------------------|------------------------|--------------| 

A|-----7---7--7-----7---7--7-|-----7---7--7-----7-----|--------------| 

E|--0-----------0------------|--0------------0-----7\\-|--5------5----| 

Узнай ВСЕ о своем друге в ВК или FB
G|-----------|-------------------|-----------------|------------------|---------------| D|-----------|-------------------|-----------------|------------------|---------------| A|-----------|-------------------|--5----5--5--5/7-|-------7--------7-|---------------| E|--5-----5/-|--8----8--8--7(h)8-|-----------------|--0-------0--0----|--0----0--3--2-| G|---------------------------|------------------------|--------------|-------------| D|---------------------------|------------------------|-------7------|-------------| A|-----7---7--7-----7---7--7-|-----7---7--7-----7-----|------------7-|-------------| E|--0-----------0------------|--0------------0-----7\\-|--5-----------|--5-----5--7-| G|-------------------|---------------|-------------|-----------------|| D|-------------------|-------7-----7-|-------------|-----------------|| A|-------------------|--5-------5----|-7---------7-|--7--------------|| E|--8----8--8--7(h)8-|---------------|------0------|-------0----3--2-|| Verse 5 G|----------------|--------------------|----------------|--------------------| D|----------------|--------------------|----------------|--------------------| A|---------7------|--5-----------------|---------7------|--5-----------------| E|--0-------------|----------8----3--2-|--0-------------|----------8----3--2-| G|----------------|--------------------|--------------|------------|----------------------------|| D|----------------|--------------------|--------------|------------|----------------------------|| A|---------7------|--5-----------------|--------2-----|--------7---|--------------7--(7)\\-------|| E|--0-------------|----------8----3--2-|--3-----------|--0---------|--0--0--0--0-----------3--2-|| Verse 6 G|----------------|--------------------|----------------|--------------------| D|----------------|--------------------|----------------|--------------------| A|---------7------|--5-----------------|---------7------|--5-----------------| E|--0-------------|----------8----3--2-|--0-------------|----------8----3--2-| G|----------------|--------------------|--------------|------------|------------|| D|----------------|--------------------|--------------|------------|------------|| A|---------7------|--5-----------------|--------2-----|--------7---|--3----0----|| E|--0-------------|----------8----3--2-|--3-----------|--0---------|------------|| Chorus G|-------------------|------------|-------------------|-------------| D|-------------------|------------|-------------------|-------------| A|--5--5--5--5--5--5-|--3-----0---|--5--5--5--5--5--5-|--3-----0----| E|-------------------|------------|-------------------|-------------| G|-------------------|------------|-------------------|-------------| D|-------------------|------------|-------------------|-------------| A|--5--5--5--5--5--5-|--3-----0---|--5--5--5--5--5--5-|--3-----0----| E|-------------------|------------|-------------------|-------------| G|----------|---------|-------------------------------------|| D|----------|---------|-------------------------------------|| A|--5--5--5-|---------|-------------------------------------|| E|----------|--0------|--0--0--0--0--0--0--0--0--0--0--0--0-|| Guitar Solo G|------------|----------------|------------|----------------|------------| D|------------|----------------|------------|----------------|------------| A|-------7--7-|--5--5----------|-------7--7-|--5--5----------|-------2----| E|--0--0------|--------8--3--2-|--0--0------|--------8--3--2-|--3-------0-| G|------------|------------|-----------|-------------|| D|------------|------------|-----------|-------------|| A|------------|------------|-----------|-------------|| E|--0---------|--(0)-------|-----------|-------------|| Verse 7 (Bass Out) G|------------|-------------| D|------------|-------------| A|------------|-------------| E|--(0)-------|--(0)--------|

поиск лекарств
список лекарств






О сайтеАккордыХит-парадПоискУроки ФорумыИщу песню
ПрограммыСвежачок-сПодпискаСтатьи
Яндекс.Метрика