Аккорды Чайф | Всему своё время гитара табулатуры уроки тексты песен Чайф текст lyrics песня аккорды песни ноты нота электрогитара струна  
   А Б В Г Д Е Ж З И К Л М Н О П Р С Т У Ф Х Ч Ш Ы Э Ю Я       Разные песни
1-9 A B C D E F G H I J K L M N O P Q R S T U V W Y Z      Все исполнители in english

    



группа Чайф, Аккорды песни Всему своё время

Продолжаем грести бабос на ботах в Telegram.
Только в этот раз есть вариант автоматизировать это дело, привлекая рефералов. Вы можете заработать если »

Группа: Чайф - другие аккорды (161),   о группе (2 статей),   диски (19),   фотографии (10)
Аккорды песни: Всему своё время
Просмотров: 4235
Подобрал: Тимофеев Александр (Alex_tim@rambler.ru)




    

                        Аккорды: Настя + Шахрин - \"Всему своё время\"



                Автор подбора : Александр Тимофеев



        Проигрыш: |Dm|C|G|Am|+Solo-1



        Dm

      1 |---------5-----

        |------------6--

        |------7--------

        |---------------

        |---5-----------

      6 |---------------



        C

      1 |---------3-----

        |------------5--

        |------5--------

        |---------------

        |---3-----------

      6 |---------------



        G

      1 |---------3-----

        |------------3--

        |------4--------

        |---------------

        |---------------

      6 |---3-----------



        Am

      1 |---------0-----

        |----------1----

        |------2----2---

        |---------------

        |---0-----------

      6 |---------------



        Solo-1:

      1 |------------7--10-----10-----9--10--9--7--------------7--10-----10-----12--10--9----7----|

        |---5--7--8-----------------------------------5--7--8-------------------------------------|

        |-----------------------------------------------------------------------------------------|

        |-----------------------------------------------------------------------------------------|

        |-----------------------------------------------------------------------------------------|

      6 |-----------------------------------------------------------------------------------------|



        

         Куплет 1:

                

                C

        |---------0--------0--

        |---------1--------1--

        |------0--------0-----

        |------------2--------

        |---3-----------------

        |---------------------



                G

        |---------3--------3--

        |---------0--------0--

        |------0--------0-----

        |---------------------

        |------------2--------

        |---3-----------------



                Dm

        |---------1--------1--

        |---------3--------3--

        |------2--------2-----

        |---0-----------------

        |------------0-------

        |---------------------



                Am

Продолжаем грести бабос на ботах в Telegram.
Только в этот раз есть вариант автоматизировать это дело, привлекая рефералов. Вы можете заработать если »

|---------0--------0-- |---------1--------1-- |------2--------2----- |------------2-------- |---0----------------- |--------------------- C G Со мной моя нежность, Dm Am Да что с нею делать C G Унять свою гордость Dm Am Душа б не болела Dm C (здесь аккорды: Dm/C/G - беруться на 5-м и 3-м ладах соответственно,а аккорд Am - на первом ладу) Меня гложет зависть, (перебор такой, как и в проигрыше) G Am А с ней моя злоба Dm C Желанье быть первым G Am И что б высшей пробы Проигрыш. Выцвела книга, Её не открыли. Ведь были же крылья, Да надломили. В одной руке бритва, В другой моя смелость К вечеру битва, С утра опять серость. Проигрыш. Над крышею небо Всему своё время С тобой твоё дело В тебе моя вера Со мной ночью холод Желанье напиться Уверенный голос, Усталые лица. Проигрыш: |Dm|C|G|Am|+Solo-1 - 3 раза, |Dm|C|G|Am|+Solo-2 - 1 раз. Solo-2: 1 |-----------------------------------------------------------------------------------------| |-----------------------------------------------------------------------------------------| |-----------------------------------------------------------------------------------------| |-------------9--12-----12-----11--12--11--9---------------9--12-----12-----14--12--11--9-| |---7--9--10-------------------------------------7--9--10---------------------------------| 6 |-----------------------------------------------------------------------------------------|

искать в аптеке
список лекарств

Сумка для тхэквондо купить

Тренировки по тхэквондо. Школа тхэквондо WTF

taekwondo-pro.com








О сайтеАккордыХит-парадПоискУроки ФорумыИщу песню
ПрограммыСвежачок-сПодпискаСтатьи
Яндекс.Метрика